Amimegusta

Amimegusta

b "el mauro"

 

El Mauro

(capo 4)

(intro:)
1:
F#m
|--------------------------------------------------------------
|2-h-0---------------------------------------------------------
|--------2--4--h--2--h--0--2--h--0--------------0--2--4--------
|--------------------------------------4--2--4-----------------
|--------------------------------------------------------------
|--------------------------------------------------------------

------------------------------------------|
2-h-0-------------------------------------|
---------2--4--h--2--h--0--2--h--0--------|
----------------------------------------4-|
------------------------------------------|
------------------------------------------|
2:(2x)
m
|-------------------------------------------------------------------|
|-------------------------------------------------------------------|
|4--h--2--h--0--2--h--0-----------------------------------------0--2|
|------------------------------4--5--s--4--p--2--h--4--2-----4------|
|-------------------------------------------------------------------|
|-------------------------------------------------------------------|

3:
F#7
|------------------------------------------|
|------------------------------------------|
|---4--4---4--p--3------4--4---4--p--3-----|
|5--------------------5--------------------|
|------------------------------------------|
|------------------------------------------|

(herh. 2,1,2,3)

        Bm
Sabei lo que queremos
         A
Pero tenemos

Sabei lo que queremos
         Em
Pero tene-mos

Salud y amor
                  F#7
Y la libertad son lo prefiero
        Bm          (Fill 1) 
Sabei lo que queremos
           A   (Fill 2)
Que lo tene-mos

Sabei lo que queremos
           Em
Son lo prefie-ro

Amor y el amor
      (fill 3)A7     F#7
Y libertad si yo lon quiero

(refrein):
             D         A         Em(7)
Ay vengo del Mauro del Mauro del Mauro
F#m7                      Em7
Vengo vengo del Mauro del Mauro
F#m7                      Em(7)     F#7
Vengo vengo del Mauro del Mauro del Mauro
   
(herh. refrein)

(herh. 2,1,2,3 (2x))

                  Bm
Y tendras tu recompensa gitano
                   A
Por el Senor de lo cielo
                   G
Porque el amor se apaga
                   F#7
Entre lo malo y lo bueno (herh.)


(herh. refrein 4x)

---------------------------------------------------------------------

Chords:

F#m: 244222
Em:  022000
F#7: 242352
Bm:  x24432
A:   x02220
G:   320003
D:   xx0232
Em7: 020000

FILL 1:

|-0-0-0-2-3-5-5-5-h-3-3-3-h-2-2-2-p-0-0-0-------------0------------|
|----------------------------------------------3-p-2-h-3---3-p-2-3-|
|------------------------------------------------------------------|
|------------------------------------------------------------------|
|------------------------------------------------------------------|
|------------------------------------------------------------------|

FILL 2:                                                    FILL 3:

|-0-0-0-0---0--0--0--0--0--------------------|             |-3-2-0-|
|----------3--3--3--2--2--2------------------|             |-------|  
|---------------------------2-s-4-4-2--4-4-2-|             |-------|
|--------------------------------------------|             |-------|
|--------------------------------------------|             |-------|
|--------------------------------------------|             |-------|                



18/09/2011
0 Poster un commentaire

A découvrir aussi


Inscrivez-vous au blog

Soyez prévenu par email des prochaines mises à jour

Rejoignez les 12 autres membres