Amimegusta

Amimegusta

Tab "bossamba"

Bossamba


                                    [Riff 1............................
 Bm
|-7-7--7-6-6-6-|-6-5-5-5--5-4-4-5-6-|-7-7--7-6-6-6-|-6-5-5-5--5-4-4-4-|
|-7-7--7-7-7-7-|-7-7-7-7--7-7-7-7-7-|-7-7--7-7-7-7-|-7-7-7-7--7-7-7-7-|
|-7-7--7-7-7-7-|-7-7-7-7--7-7-7-7-7-|-7-7--7-7-7-7-|-7-7-7-7--7-7-7-7-|
|--------------|--------------------|--------------|------------------|
|--------------|--------------------|--------------|------------------|
|--------------|--------------------|--------------|------------------|

........................................................
    Em     A6        D                 Ebm
|-4-3-3--3-2-2-2-|-2-2-2-2--2-2-2-2-|-2-2-2-2--2-2-2-2-|
|-7-5-5--5-2-2-2-|-2-3-3-3--3-3-3-3-|-3-4-4-4--4-4-4-4-|
|-7-4-4--4-2-2-2-|-2-2-2-2--2-2-2-2-|-2-3-3-3--3-3-3-3-|
|----------------|------------------|------------------|
|----------------|------------------|------------------|
|----------------|------------------|------------------|

...............................................end riff 1]
   Ab7-5               Db                Bbsus4    B  F#7
|-2-2-2-2--2-2-2-2-|-2-1-1-1--1-1-1-1-|-1----------------|
|-4-1-1-1--1-1-1-1-|-1-2-2-2--2-2-2-2-|-2-4-4-4--4-3-3-5-|
|-3-1-1-1--1-1-1-1-|-1-1-1-1--1-1-1-1-|-1-3-3-3--3-3-3-3-|
|------------------|------------------|---3-3-3--3-3-3-4-|
|------------------|------------------|------------------|
|------------------|------------------|------------------|

Repeat riff 1(2x)


[Riff 2..........................................end riff 2]
  Bm         A6          D          F#
|-2-0-1-2----2-0-1-2--|--2-0-1-2----{2-{2-{2-|-{2-{2-{2----|
|-3-3-3-3----2-2-2-2--|--3-3-3-3----}2-}2-}2-|-}2-}2-}2----|
|-4-4-4-4----2-2-2-2--|--2-2-2-2----{3-{3-{3-|-{3-{3-{3----|
|---------------------|-------------}2-}2-}2-|-}2-}2-}2----|
|---------------------|-------------{4-{4-{4-|-{4-{4-{4----|
|---------------------|-------------.2-.2-.2-|-.2-.2-.2----|


Repeat riff 2


Riff 1(3x)
Riff 2(2x)


End(repeat & fade):
Bm
|-7-7--7-6-6-6-|-6-5-5-5--5-4-4-5-6-|
|-7-7--7-7-7-7-|-7-7-7-7--7-7-7-7-7-|
|-7-7--7-7-7-7-|-7-7-7-7--7-7-7-7-7-|
|--------------|--------------------|
|--------------|--------------------|
|--------------|--------------------|
 

 


18/09/2011
0 Poster un commentaire

A découvrir aussi


Inscrivez-vous au blog

Soyez prévenu par email des prochaines mises à jour

Rejoignez les 12 autres membres