Amimegusta

Amimegusta

tab "campana"

 

CAMPANA


(Capo 2)
1:(2x)
Bm                      Asus4
|----------------------|----------------------|
|---3------------------|---2-------------3----|
|-------4-----4------4-|2------2-----2--------|
|----------4-----------|2---------2-----------|
|2---------------------|0---------------------|
|----------------------|----------------------|


Em7                     Asus4
|----------------------|---------------------|
|---0--------------3---|-----2-----------3---|
|-------0-----0--------|-2-----2-----2-------|
|2---------2-----------|-2--------2----------|
|2---------------------|-0-------------------|
|0---------------------|---------------------|

2:
G                       F#
|----------------------|--------------------|
|--0------------0------|---2------------2---|
|------0-----0-----0---|-------3------3-----|
|---------0------------|----------4---------|
|2---------------------|4-------------------|
|3---------------------|2-------------------|

3(2x):
Em7                     F#
|----------------------|--------------------|
|---0-------------3----|---2------------2---|
|-------0-----0--------|-------3------3-----|
|2---------2-----------|----------4---------|
|2---------------------|4-------------------|
|0---------------------|2-------------------|


Bm                      
|-----------------------|------------------------|
|---3-------------3-----|---3-------------3------|
|-------4-----4------4--|-------4-----4------4---|
|----------4------------|----------4-------------|
|2----------------------|2-----------------------|
|-----------------------|------------------------|

















Bm             Asus9  Em7      Asus9
Dime Senor por que no vienes a mi


Bm/ Asus9 / G / F#


Bm             Asus9    Em7     Asus9
Yo no puedo quedarme un dia sin ti


Bm          Asus9          F#m            F#
Los gitanos juntos siempre estan mirando ahi


Bm              Asus9    Em7      Asus9
Cuando sueno la noche me siento feliz


Bm          Asus9            F#m          F#
Los gitanos juntos siempre estan mirando ahi


Bm              Asus9   Em7     Asus9
Nai nai nai nai nai nai nai nai nai


Bm             Asus9  Em7      Asus9
Dime Senor por que no vienes a mi


Bm          Asus9            F#m          F#
Los gitanos juntos siempre estan mirando ahi


Bm              Asus9   Em7     Asus9
Nai nai nai nai nai nai nai nai nai


Bm          Asus9            F#m          F#
Los gitanos juntos siempre estan mirando ahi

(solo:)

Em7 / E / Dm(F) / D / Bm/ Asus9 / G / F#



18/09/2011
0 Poster un commentaire

A découvrir aussi


Inscrivez-vous au blog

Soyez prévenu par email des prochaines mises à jour

Rejoignez les 12 autres membres