Amimegusta

Amimegusta

Tab "duende"

 
 
DUENDE


Capo 1

Intro

  F/A
  Gtr I (acoustic)
|---------1-----(1)------|---------1-----(1)-------|---------1-----(1)-------|
|-------1---1------------|-------1---1-------------|-------1---1-------------|
|-----5-------5-(5)------|-----5-------5-(5)S=4----|-----5-------4-(4)S=5----|
|---3-----------(3)------|---3-----------(3)-------|---3-----------(3)-------|
|-0-------------(0)------|-0-------------(0)-------|-0-------------(0)-------|
|------------------------|-------------------------|-------------------------|

|-1-------(1)------|----------------------------------------|
|---1--------------|----------------------------------------|
|-----4S5-(5)------|-----4-5p4-5-7S9S7-7p5h7p5h7p5--(5)-4---|
|------------------|-5h7----------------------------------7-|
|------------------|----------------------------------------|
|------------------|----------------------------------------|

  F/G
|---------1-----(1)----|
|-------1---1----------|
|-----5-------5-(5)----|
|---3-----------(3)----|
|----------------------|
|-3-------------(3)----|

                             G7sus4
|---------1-----(1)--------|---------1---------------|
|-------1---1--------------|-------1---1-------------|
|-----5-------5-(5)----4p2-|-----5-------4-2p0-------|
|---3-----------(3)--------|---0---------------------|
|--------------------------|-------------------------|
|-3-------------(3)--------|-3-----------------1h3p1h|

|-------1--------------------|
|-----1---1------------------|
|---4-------4-2p0------------|
|----------------------------|
|----------------------------|
|-3---------------3-1-3-3----|

                                        F(no3rd)
|-------------------------------------|-----------------|-----1--------------|
|-------------------------------------|-----------------|---1---1------------|
|-----4-4-5-7-5-7-5-4-5-4-4-2-2-0-----|-----0h2p0-------|-4-------4-5S4S=2---|
|-5-7-----------------------------5-3-|---3-------5S=3--|--------------------|
|-------------------------------------|-----------------|--------------------|
|-------------------------------------|-1---------------|--------------------|

  Fadd9
|---------1-----------(1)----|
|-------1---1---------(1)----|
|-----2-------2-------(2)----|
|---------------5-----(5)----|
|---3-------------3---(3)----|
|-1-----------------1-(1)----|

                      N.C.           F(no3rd)
|------------------------|-----------------------------|
|------------------------|-----------------------------|
|-----2p0----------------|-------2h4-5p4-4p2-2p1-1-----|
|-3h5-----3-2h3p2h3p2-1--|-2h3h5-------------------3---|
|------------------------|-----------------------------|
|------------------------|-----------1-----------------|

            E(no3rd)
|---------------|---------1---1-|------------|
|---------------|-------5---4---|------5-----|
|---------------|-----4---------|---4-(4)----|
|-6p3-3h6p3-3S2-|-(2)-----------|-2----------|
|---------------|---------------|------------|
|-----------0---|-(0)-----------|-0----------|


   Guitar Solo

      Am+5Am                 G7sus4  G7
||---------|-----------|--------------|------------|
||o--------|-----0-1-3-|-3p1h3p1p0----|-------0-1--|
||--2------|---2-------|--------------|---0-2------|
||---------|-----------|--------------|------------|
||o--------|-----------|--------------|------------|
||---------|-----------|--------------|------------|
                                         __________
                                        |1.
      F                        E7b9    E7
|--------------|-----------|------------|--------||
|-1p0h1p0------|---------0-|------------|-------o||
|---------2----|-----1-2---|-1----------|--------||
|--------------|---3-------|---2h3p2----|--------||
|--------------|-----------|------------|-------o||
|--------------|-----------|------------|--------||
 ______________
|2.
                      Am+5  Am
|-------------|---------------|----------------5-7-5--|
|----5-6-5-6--|-(6)-8p6-6---5-|-(5)------5-6-8--------|
|-------------|---------------|------5-7--------------|
|-------------|---------------|-----------------------|
|-------------|---------------|-----------------------|
|-------------|---------------|-----------------------|

      G7sus4                G7                              F
|---5-7-8-(8)-7-8-10-(10)-8-7-8-|-(8)-7-5-7-7---------|---5-7p5---5-7-8-7-8-10-|
|-8-----------------------------|-----------------5-6-|-8-------8--------------|
|-------------------------------|---------------7-----|------------------------|
|-------------------------------|---------------------|------------------------|
|-------------------------------|---------------------|------------------------|
|-------------------------------|---------------------|------------------------|

                             E7b9             E7
|-(10)-8-10-12-12-12---|--10-12-13-(13)-12-12-10h12p10-|-10-10---------||
|----------------------|-------------------------------|-----------13--||
|----------------------|-------------------------------|---------------||
|----------------------|-------------------------------|---------------||
|----------------------|-------------------------------|---------------||
|----------------------|-------------------------------|---------------||

     Am+5           Am
|-15--(15)-13h15p13--12-|-13h15p13-12----------|
|-----------------------|-------------15-13-15-|
|-----------------------|----------------------|
|-----------------------|----------------------|
|-----------------------|----------------------|
|-----------------------|----------------------|

       G7sus4            G7
|---------------------------|-------13-12-------|
|-(15)--(15)-13h15p13-12----|----12-------15-13-|
|------------------------14-|-14----------------|
|---------------------------|-------------------|
|---------------------------|-------------------|
|---------------------------|-------------------|

           F                                       E7b9        E7
|-------------------------|-------------------|-13--(13)-12----12-|-----------||
|-13h15p13-13-12----12----|----------12-13-15-|-------------15----|-12--------||
|----------------14----14-|-14p13-14----------|-------------------|--------14-||
|-------------------------|-------------------|-------------------|-----------||
|-------------------------|-------------------|-------------------|-----------||
|-------------------------|-------------------|-------------------|-----------||


       Am+5        Am                               G7sus4
|---------------------|------------------------|-12--(12)----------|-----------|
|------------12h13p12-|-13h15p13-(13)-12-13-15-|----------13h15p13-|-12-----12-|
|-(14)p13h14----------|------------------------|-------------------|-----------|
|---------------------|------------------------|-------------------|-----------|
|---------------------|------------------------|-------------------|-----------|
|---------------------|------------------------|-------------------|-----------|

     F                                       E7b9        E7
|-15-13-12----------|-------------------|-13--(13)-12----12-|-------------||
|----------15-13-12-|-------------------|-------------15----|-12-----6h8p=||
|-------------------|-14--(14)-12----12-|-------------------|-------------||
|-------------------|-------------15----|-------------------|-------------||
|-------------------|-------------------|-------------------|-------------||
|-------------------|-------------------|-------------------|-------------||

    Am+5  Am                         G7sus4    G7
|----------|-------------------|----------------|--------------|
|-6--6-5---|--5-6-5-6--5-6-5-6-|-5-8p6-6-8p6-6--|----5-6-8p6p5-|
|----------|-------------------|----------------|--------------|
|----------|-------------------|----------------|--------------|
|----------|-------------------|----------------|--------------|
|----------|-------------------|----------------|--------------|

   F                                                        E7b9
|-----------------------|-------------------------------|---------------|
|--5-6-8p6p5--5-6-8p6p5-|-5-6h8p6p5---5-----------------|---------------|
|-----------------------|-----------7---7p5s4h5-4p2h4p2-|-1--(1)-2p1-2S=|
|-----------------------|-------------------------------|---------------|
|-----------------------|-------------------------------|---------------|
|-----------------------|-------------------------------|---------------|

  E7         Am+5     Am                  G7sus4   G7
|--------|-------------|------------|---------------|--------------|
|--------|-------------|------------|---------------|--------------|
|-4------|-5h7p5p4-5---|-5----4-5-7-|-7p5h7p5p4-4---|-(4)----2-4-5-|
|--------|-------------|----7-------|---------------|------5-------|
|--------|-------------|------------|---------------|--------------|
|--------|-------------|------------|---------------|--------------|

      F                            E7b9    E7
|---------------|--------------|------------|-------------|
|---------------|--------------|------------|----5-6-5-6--|
|-5p4-5p4p2-2---|-(2)----1-2-4-|-1----------|-------------|
|---------------|------3-------|---2h3p2----|-------------|
|---------------|--------------|------------|-------------|
|---------------|--------------|------------|-------------|

    Am+5         Am                       G7sus4          G7
|-----------------|-----------------|-------------------------|
|-6--5---6p5---5--|-(5)--5-6-5-6--5-|-8p6-(6)-5---6p5---5-(5)-|
|------7-----7----|-----------------|-----------7-----7-------|
|-----------------|-----------------|-------------------------|
|-----------------|-----------------|-------------------------|
|-----------------|-----------------|-------------------------|

                          F
|-------------5-7-8-|-(8)-7-8S10-8-10S12--12-|-(12)--12h13-----12-13-15-12--|
|-------5-6-8-------|------------------------|--------------15--------------|
|---5-7-------------|------------------------|------------------------------|
|-------------------|------------------------|------------------------------|
|-------------------|------------------------|------------------------------|
|-------------------|------------------------|------------------------------|

        E7b9       E7                  Am+5          Am
|-13----12------------|----------|-8p7--5-7p5----5------|
|----15----13-15---13-|-12-----5-|-------------8---8p=6-|
|---------------------|----------|----------------------|
|---------------------|----------|----------------------|
|---------------------|----------|----------------------|
|---------------------|----------|----------------------|

                           G7sus4G7                      F
|----------------------|-----------|-----------------|----------|
|-8p6--5-6p5----5------|-----------|-3h5p3---------5-|-6----6-8-|
|-------------7---7p=5-|-7S=5-4--5-|-------5p4-5h7---|----------|
|----------------------|-----------|-----------------|----------|
|----------------------|-----------|-----------------|----------|
|----------------------|-----------|-----------------|----------|

                         E7b9      E7               Am+5      Am
|--------------------|----------------|---------|-----------------|
|-10--10-12p10h12-13-|-9--(9)---------|---------|-----------------|
|--------------------|--------10p9-10-|-9-----9-|-9h10p9h10p9h10p=|
|--------------------|----------------|---------|-----------------|
|--------------------|----------------|---------|-----------------|
|--------------------|----------------|---------|-----------------|

                        G7sus4   G7
|------------------|--------------|----------------------------|
|------------------|--------------|----------------------------|
|-9-9-12-10-12--10-|-10-9h10-9----|--9-12-10-12--10p9----9h10--|
|------------------|--------------|-------------------12-------|
|------------------|--------------|----------------------------|
|------------------|--------------|----------------------------|

       F                                            E7b9E7
|-----------------|-----------------------------|--------|----------||
|-----------------|-----------------------------|--------|----------||
|-9h10-9-(9)----9-|-12-10-12-(12)--10p9----9h10-|-9------|-(9)------||
|-----------------|---------------------12------|--------|----------||
|-----------------|-----------------------------|--------|----------||
|-----------------|-----------------------------|--------|----------||

      Am+5     Am                    G7sus4   G7
||--------------|--------------|---------------|---------------|
||o-------------|--------------|---------------|---------------|
||--5h7p5p4-5---|-(5)----4-5-7-|-7p5h7p5p4-4---|-(4)----2-4-5--|
||--------------|------7-------|---------------|------5--------|
||o-------------|--------------|---------------|---------------|
||--------------|--------------|---------------|---------------|
                                             _________
                                            |1.
      F                            E7b9    E7
|---------------|--------------|------------|--------||
|---------------|--------------|------------|-------o||
|-5p4-5p4-2-2---|-(2)----1-2-4-|-1----------|--------||
|---------------|------3-------|---2h3p2----|--------||
|---------------|--------------|------------|-------o||
|---------------|--------------|------------|--------||
 ___________________
|2.
                        Am+5    Am
|---------0-1p0---0-|-------------|------------------------|
|---0-1-3-------3---|-3---1-0h1-0-|-(0)--(0)-----0-1p0---0-|
|-------------------|-------------|----------1-2-------2---|
|-------------------|-------------|------------------------|
|-------------------|-------------|------------------------|
|-------------------|-------------|------------------------|

      G7sus4          G7
|-----0-1-0---0-1-3-1-0---|-------------------------|
|-1-3-------3-----------3-|-1-0-3-1-0---0-1-3-1-0---|
|-------------------------|-----------2-----------0-|
|-------------------------|-------------------------|
|-------------------------|-------------------------|
|-------------------------|-------------------------|

        F
|-----------------------|------------|---------------------0-|
|-----------------------|------------|--0h=1p0---------1-3---|
|-2h4p2-2---------------|------2p1h2-|---------2p1h2-2-------|
|---------3h5p3p2-0-2-3-|-3----------|-----------------------|
|-----------------------|------------|-----------------------|
|-----------------------|------------|-----------------------|
|
|                         Gtr II
|                         TP            TP
|-----------------------|-1----------|-(1)-------------------|
|-----------------------|-1----------|-(1)-------------------|
|-----------------------|-2----------|-(2)-------------------|
|-----------------------|-3----------|-(3)-------------------|
|-----------------------|-3----------|-(3)-------------------|
|-----------------------|-1----------|-(1)-------------------|

|--1p=0---0-------------|---------------------------------------|
|-------3---3p1-3p1-0-1p|==0--------0-1p0---0-------------------|
|-----------------------|-----2-1h2-------2---2p1-2-1h2p1h2p1---|
|-----------------------|-------------------------------------3-|
|-----------------------|---------------------------------------|
|-----------------------|---------------------------------------|
|
|  TP                      TP
|-(1)-------------------|-(1)-----------------------------------|
|-(1)-------------------|-(1)-----------------------------------|
|-(2)-------------------|-(2)-----------------------------------|
|-(3)-------------------|-(3)-----------------------------------|
|-(3)-------------------|-(3)-----------------------------------|
|-(1)-------------------|-(1)-----------------------------------|

                           Interlude
  E7
|------------------------||-}0--0-----0-----0-------0-----|
|------------------------||-{6------6-----6------6--------|
|------------------------||-.0----7-----7-----7-------7---|
|-2-3p2-3p2-3p2-(2)------||-------------------------------|
|------------------------||-------------------------------|
|----------------------8-||-(8)-------------------------8-|
|
| TP
|-0----------------------||-------------------------------|
|-0----------------------||-------------------------------|
|-1----------------------||-------------------------------|
|-0----------------------||-------------------------------|
|-2----------------------||-------------------------------|
|-0----------------------||-------------------------------|
|
| Gtr II (cello arr. for guitar)
|------------------------||-------------------------------|
|------------------------||-------------------------------|
|------------------------||-------------------------------|
|-2------------------0---||-------------------------------|
|------------------------||--3------------------(3)-------|
|------------------------||-------------------------------|

|-----0-----0-----0-------0-----|-------0-----|---------------------------|
|--6------6-----6------6--------|--6----------|----}0-0-----0-------0-----|
|-------7-----7-----7-------7---|-----0-------|----{5-----5------5--------|
|-------------------------------|-------------|----.7---7-----7-------7---|
|-------------------------------|-------------|-----0-------------------0-|
|-(8)-------------------------8-|--8----------|---------------------------|
|
|-------------------------------|-------------|---------------------------|
|--1------------------(1)-------|-(1)------0--|---------------------------|
|-------------------------------|-------------|-2---------------(2)-------|
|-------------------------------|-------------|---------------------------|
|-------------------------------|-------------|---------------------------|
|-------------------------------|-------------|---------------------------|

|-------------------------|----------|-}0-0-----0-----0-------0-----|
|-----0-----0-------0-----|-------0--|-{6-----6-----6------6--------|
|--5------5------5--------|--5-------|-.7---7-----7-----7-------7---|
|-------7-----7-------7---|-----2----|--0-------------------------0-|
|-(0)-------------------0-|-(0)------|------------------------------|
|-------------------------|----------|------------------------------|
|
|-------------------------|----------|------------------------------|
|-------------------------|----------|------------------------------|
|-(2)-----------(2)-------|--2-------|------------------------------|
|-------------------------|-------2--|--0-----------------(0)-------|
|-------------------------|----------|------------------------------|
|-------------------------|----------|------------------------------|

|-----0-----0-----0-------0-------|-------0-----|--------------------------|
|--6------6-----6------6----------|--6----------|-}1------1-----1----------|
|-------7-----7-----7---------7---|-----2-------|-{4--4-----4-----4--------|
|-(0)---------------------------0-|-(0)---------|-}3----3-----3-----3------|
|---------------------------------|-------------|--------------------------|
|---------------------------------|-------------|-.3-------------------3---|
|
|---------------------------------|-------------|--------------------------|
|---------------------------------|-------------|--------------------------|
|---------------------------------|----------0--|-(0)-----------------(0)--|
|-(0)-----------------(0)---2-----|--3----------|--------------------------|
|---------------------------------|-------------|--------------------------|
|---------------------------------|-------------|--------------------------|

|-------------------------|--------------|-}0--0-----0-----0--------|
|--1------1-----1---------|--1-------6---|-{6------6-----6----------|
|-----4-----4-----4-------|------4-------|-.0----7-----7-----7------|
|-------3-----3-----3-----|--------------|--------------------------|
|-------------------------|--------------|--------------------------|
|-(3)------------------3--|-(3)--------8-|-(8)------------------8---|
|
|                            >
|-------------------------|--------------|--------------------------|
|-------------------------|--------------|--------------------------|
|-(0)-----------------(0)-|-(0)----------|--------------------------|
|-------------------------|--------------|--------------------------|
|-------------------------|--------------|--3------------------(3)--|
|-------------------------|--------------|--------------------------|

|-----0-----0-----0-------|-------0----------------|
|--6------6-----6---------|--6---------------------|
|-------7-----7-----7-----|-----0------2p0-------0-|
|-------------------------|----------------3p2-----|
|-------------------------|------------------------|
|-(8)------------------8--|-(8)--------------------|
|
|-------------------------|------------------------|
|-------------------------|------------------------|
|-------------------------|------------------------|
|-------------------------|----------0---------2---|
|-(3)-----------------(3)-|-(3)--------------------|
|-------------------------|------------------------|


|---------------------------------------------|
|-}1------------------------------------------|
|-{2-----10----9------------------------------|
|-.3--------12---10-12-9-10----9--------------|
|---------------------------12---10-12-8-10-7-|
|---------------------------------------------|
|
|---------------------------------------------|
|---------------------------------------------|
|---------------------------------------------|
|--3------------------------------------------|
|---------------------------------------------|
|---------------------------------------------|


|-----------------|--------------------|
|-----}10-10--10--|-10---------------3-|
|-----{10-10--10--|--8---------2-4h5---|
|-----{10-10--10--|-10-----3h5---------|
|-8---.-8--8---8--|--8-----------------|
|-----------------|--------------------|
|
|-1---------------|-(1)----------------|
|-----------------|--------------------|
|-----------------|--------------------|
|-----------------|--------------------|
|-----------------|--------------------|
|-----------------|--------------------|

|-}0--(0)-----------|--------------------|-----------------------|
|-{1--(1)-3p1-3p1-0-|--------------------|-----------------------|
|-}2--(2)-----------|-}5---(5)-4---4-----|-----------------------|
|-.3--(3)-----------|-{3---(3)---7---7-6-|--7--6-3-7-6h7p6p3-3S2-|
|-------------------|-.3---(3)-----------|-----------------------|
|-------------------|--------------------|-----------------------|
|
|                                           >
|--1----------------|-(1)----------------|-(1)-------------------|
|-------------------|--------------------|-----------------------|
|-------------------|--------------------|-----------------------|
|-------------------|--------------------|-----------------------|
|-------------------|--------------------|-----------------------|
|-------------------|--------------------|-----------------------|

|---------0-0-------------|---------0-0-------------||
|-------6-----6-----------|-------6-----6-----------||
|-----5---------5---------|-----5---------5---------||
|---7-------------7-------|---7-------------7-------||
|-------------------8S=7--|-------------------8S=7--||
|-0-----------------------|-------------------------||
|
|-------------------------|-0-----------------------||
|-------------------------|-------------------------||
|-------------------------|-------------------------||
|-2-----------------------|-------------------------||
|-------------------------|-------------------------||
|-------------------------|-------------------------||


Guitar solo
      Am+5  Am                     G7sus4  G7
||--------------|--------------|---------------|--------------|
||o-------------|--------------|---------------|--------------|
||--5h7p5p4-5---|-(5)----4-5-7-|-7p5h7p5p4-4---|-(4)----2-4-5-|
||--------------|------7-------|---------------|------5-------|
||o-------------|--------------|---------------|--------------|
||--------------|--------------|---------------|--------------|
                                             ________
                                            |1.
      F                            E7b9    E7
|---------------|--------------|------------|--------||
|---------------|--------------|------------|-------o||
|-5p4-5p4-2-2---|-(2)----1-2-4-|-1----------|--------||
|---------------|------3-------|---2h3p2----|--------||
|---------------|--------------|------------|-------o||
|---------------|--------------|------------|--------||
 ________________
|2.
                       Am+5        Am
|--------4-5-7-8-|-(8)-7-5-7-8--------|------------8-7-8--|
|----5-6---------|-------------5h6-5--|-(5)--(5)-5--------|
|----------------|--------------------|-------------------|
|----------------|--------------------|-------------------|
|----------------|--------------------|-------------------|
|----------------|--------------------|-------------------|

      Em/G                                  F
|-7p5-8p7-7----|-(7)--7---5-7-8---7-|-(7)---8---7----8--|
|--------------|--------5-------6---|-----6---6----6----|
|--------------|--------------------|-------------------|
|--------------|--------------------|-------------------|
|--------------|--------------------|-------------------|
|--------------|--------------------|-------------------|

               E7b9      E7
|-(8)------|-7-5h7p5-5-4-5-|-7--(7)-4-5-7-|
|----------|---------------|--------------|
|----------|---------------|--------------|
|----------|---------------|--------------|
|----------|---------------|--------------|
|----------|---------------|--------------|

    Am+5  Am                                       G7sus4          G7
|-7S8-7---8h10-|-8--10h12-10--12h13-12--|-12h15-13p=12-------------------|
|--------------|------------------------|--------------15-13p12-13-(13)--|
|--------------|------------------------|--------------------------------|
|--------------|------------------------|--------------------------------|
|--------------|------------------------|--------------------------------|
|--------------|------------------------|--------------------------------|

                                      F
|--------------12-13-12-15-13-|-12----12---------------|----------------------|
|-12--12-13-15----------------|----15----15-13h15-13---|-(13)--(13)-12-13-15--|
|-----------------------------|------------------------|----------------------|
|-----------------------------|------------------------|----------------------|
|-----------------------------|------------------------|----------------------|
|-----------------------------|------------------------|----------------------|

     E7b9        E7                   Am+5  Am
|-13--(13)-12----12-|-------------|-------------|
|-------------15----|-13--13-12---|-------------|
|-------------------|-------------|-5h7p5p4-5---|
|-------------------|-------------|-------------|
|-------------------|-------------|-------------|
|-------------------|-------------|-------------|

                     G7sus4G7
|--------------|---------------|--------------|
|--------------|---------------|--------------|
|-(5)----4-5-7-|-7p5h7p5p4-4---|-(4)----2-4-5-|
|------7-------|---------------|------5-------|
|--------------|---------------|--------------|
|--------------|---------------|--------------|

      F                            E7b9
|---------------|--------------|------------|
|---------------|--------------|------------|
|-5p4h5p4p2-2---|-(2)----1-2-4-|-1----------|
|---------------|------3-------|---2h3p2----|
|---------------|--------------|------------|
|---------------|--------------|------------|

  E7           Am
|----------|-------------|-------------|
|----------|-1p0-------0-|-1p0---0-1-3-|
|----------|-----2-1h2---|-----2-------|
|-(2)------|-------------|-------------|
|----------|-------------|-------------|
|----------|-------------|-------------|

    G7sus4  G7
|-0--(0)------|---------0-1-0---0-1-3-1-|
|--------3--1-|-0-0-1-3-------3---------|
|-------------|-------------------------|
|-------------|-------------------------|
|-------------|-------------------------|
|-------------|-------------------------|

      F
|-0-----------------0-1-0---|-0-1-3-1-3-1-1-0-1-4-4S5-|
|---3-1-0-1---0-1-3-------3-|-------------------------|
|-----------2---------------|-------------------------|
|---------------------------|-------------------------|
|---------------------------|-------------------------|
|---------------------------|-------------------------|

    E7b9     E7             Am+5  Am
|-4--(4)-1p0-1-|-0------|-------------|
|--------------|--------|-1h3p1p0-1---|
|--------------|--------|-------------|
|--------------|--------|-------------|
|--------------|--------|-------------|
|--------------|--------|-------------|

                     G7sus4G7
|--------------|---------------|--------------|
|-(1)----0-1-3-|-3-1-3-1-0-0---|-(0)------0-1-|
|------2-------|---------------|------0-2-----|
|--------------|---------------|--------------|
|--------------|---------------|--------------|
|--------------|---------------|--------------|

      F                          E
|---------------|------------|---------{0-.0-{0-|-{0----*|
|-1-0-1-0-------|----------0-|---------}0-{0-}0-|-}0----*|
|---------2-2---|-2----1-2---|-1-------{1-}1-{1-|-{1----*|
|---------------|----3-------|---2-3-2-}2-{2-}2-|-}2----*|
|---------------|------------|---------{2-}2-{2-|-{2----*|
|---------------|------------|---------.0-{0-.0-|-.0----*|
 

 

 


18/09/2011
0 Poster un commentaire

A découvrir aussi


Inscrivez-vous au blog

Soyez prévenu par email des prochaines mises à jour

Rejoignez les 12 autres membres