Amimegusta

Amimegusta

Tab "faena"

FAENA


Capo 2

Intro:
[Riff 1...................................................................]
 Am
|-------------------|------------------|------------------|---------------|
|-5---5-3-(3)---3-1-|-(1)----1-3-(3)-1-|---5---5-3----3-1-|-(1)-1-3-(3)-5-|
|-5---5-4-(4)---4-2-|-(2)----2-4-(4)-2-|---5---5-4----4-2-|-(2)-2-4-(4)-5-|
|-------------------|------------------|------------------|---------------|
|---0---------0-----|-----0------------|-0------(0)-0-----|-(0----0-------|
|-------------------|------------------|------------------|---------------|
[Riff 2...................................................................]
 Dm
|------------------|-----------------|------------------|-----------------|
|---6---6-5----5-3-|-(3)-3---5-(5)-6-|---6---6-5----5-3-|-(3)-3---5-(5)-6-|
|---7---7-5----5-4-|-(4)-4---5-(5)-7-|---7---7-5----5-4-|-(4)-4---5-(5)-7-|
|-0------(0)-0-----|-(0)-------------|-0------(0)-0-----|-(0)-------------|
|------------------|-----------------|------------------|-----------------|
|------------------|-----------------|------------------|-----------------|
[Riff 3..................]
 E7-9         E7
|-{1-0---0---{0-|-(0)----|
|-}0---3-----}0-|-(0)----|
|-{1---------{1-|-(1)----|
|-}0---------}0-|-(0)----|
|------------{2-|-(2)----|
|------------}0-|-(0)----|

Repeat Riff 1,2,3

[Riff4...............]
Am
|-----------|--------|
|-3-1-0-1---|-(1)----|
|-4-2-1-2---|-(2)----|
|-----------|--------|
|-(0)-------|-(0)----|
|-----------|--------|



Verse(3x):
Am / / /
Dm / / /
G / / /
Cmaj7 / / /
Fmaj7 / / /
Dm7 / / /
E7 / / /
Am(add9)(3:Am)



Riff 1,2,3(2x)
Riff 4



Verse:
Am / / /
Dm7 / / /
G / / /
Cmaj7 / / /
Fmaj7 / / /
Dm / / /
E7 / / /
Am(add9) / / /
Dm7 / / /
G / / /
Cmaj7 / / /
Fmaj7 / / /
Dm7 / / /
E7 / / /
Am / / /



Riff 1,2,3(2x)


Outro:
    Am                              Fmaj7                   Am
-5-|---5---0-----0---|---0-----0---|-0-----0---|---0-----0-|-----0-----0---|
---|-----1-----1-----|-1-----1-----|-----1-----|-1-----1---|---1-----1-----|
---|---------4-------|-----4-----2-|---4-----2-|-----4-----|-2-----4-----2-|
---|-----------------|-------------|-----------|-----------|---------------|
---|-2---------------|-------------|-----------|-----------|---------------|
---|-----------------|-------------|-----------|-----------|---------------|
               Fmaj7                              Am
|---0-----0---|------0-----0-----|-----0-----0---|---0-----0-----0-|
|-1-----1---1-|----1-----1-----1-|---1-----1-----|-1-----1-----1---|
|-----4-------|--2-----4-----2---|-4-----2-----4-|-----2-----4-----|
|-------------|------------------|---------------|-----------------|
|-------------|------------------|---------------|-----------------|
|-------------|------------------|---------------|-----------------|
                     Fmaj7                                Am9
|-------0-----0-----|-0-----0------|----------------|-----{7---|
|-----1-----1-----1-|-----1--------|----------------|-----}5---|
|---2-----4-----2---|---4-----2p0--|----------------|-----{5---|
|-------------------|-------------3p2-2p0---0-------|-----}5---|
|-------------------|--------------|------3---3p2-2-|-(2)------|
|-------------------|--------------|----------------|----------|

 


18/09/2011
0 Poster un commentaire

A découvrir aussi


Inscrivez-vous au blog

Soyez prévenu par email des prochaines mises à jour

Rejoignez les 12 autres membres