Amimegusta

Amimegusta

Tab "forever"

 
 
Forever


Intro(4x):
  G                               F
|-10p8p7------10--10p8p7------|-7-8p7--------------8p7---------|
|--------10-8------------10-8-|-------10-8----10-------10-8----|
|-----------------------------|------------10---------------10-|
|-----------------------------|--------------------------------|
|-----------------------------|--------------------------------|
|-----------------------------|--------------------------------|


Verse:
  C                 C/B             Am          G
|-------------------------|---------------------------|
|-6p5p3h5---5p3---3-6-3-5-|-5/6-5-3-3-----------------|
|---------------5---------|-----------5---5p4-2-2---0-|
|-------------------------|-----------------------0---|
|-------------------------|---------------------------|
|-------------------------|---------------------------|
  C                 C/B                 Am            G
|---------------5-3-----------|-----------------------------|
|---3-5-6-3-5-------6-5-6-4-5-|-6-6p5p3-5p3-----------------|
|-5---------------------------|-------------5---5p4-2-2---0-|
|-----------------------------|-------------------------5---|
|-----------------------------|-----------------------------|
|-----------------------------|-----------------------------|
  C                   C/B             Am                G
|-------------------------|---------------------------------------|
|-------------------------|---------3-5-5-6p5-5-6-5-3-------------|
|---0-0-------------------|-4-5p4-5---------------------5-5-4-2-4-|
|-5-----2-----2h3h5-5/7-5-|---------------------------------------|
|---------3---------------|---------------------------------------|
|-------------------------|---------------------------------------|
  C                 C/B       Am      G
|---------------------------|-7-7----{7-7-5-8-5-7-|
|---------------------------|-5------}8-----------|
|---0-0-------------2-0-----|--------{7-----------|
|-5-----2-2-0h2---5-----3-2-|--------.5-----------|
|---------------------------|---------------------|
|---------------------------|---------------------|


2x:
    F                                   G
|-7-8p7--------------7-8p7---------|-10-10p8p7------10--10-10p8p7------|
|-------10-8----10---------10-8----|-----------10-8---------------10-8-|
|------------10-----------------10-|-----------------------------------|
|----------------------------------|-----------------------------------|
|----------------------------------|-----------------------------------|
|----------------------------------|-----------------------------------|


Piano-solo(4x):
C / / /
C/B / / /
Am / / /
G / / /


2x(w/piano):
    F                                   G
|-7-8p7--------------7-8p7---------|-10-10p8p7------10--10-10p8p7------|
|-------10-8----10---------10-8----|-----------10-8---------------10-8-|
|------------10-----------------10-|-----------------------------------|
|----------------------------------|-----------------------------------|
|----------------------------------|-----------------------------------|
|----------------------------------|-----------------------------------|


Verse:
  C                   C/B           Am              G
          [simplified.......]
|-----------------3-5-3-------|---------------------------|
|-5p3h5---5-5-6p5-------6-5-6-|-5-3---3---3---------------|
|-----------------------------|-----5---5-----4/5-5-5-4-5-|
|-----------------------------|---------------------------|
|-----------------------------|---------------------------|
|-----------------------------|---------------------------|
  C                       C/B                Am             G
|-----------3-5-3-----------|-10p7-------------------------------------|
|-5p3h5---5-------6-5-6-3-5-|------8-----------------------------------|
|---------------------------|--------10p7----10----7----4/5-5--5p4-2-4-|
|---------------------------|-------------10----10---------------------|
|---------------------------|------------------------------------------|
|---------------------------|------------------------------------------|
  C                C/B         Am                     G
|---------------------7----8-7-|-8-7-10-8-10-8-12-10---15-13-12-10-12-10-10-|
|-------3-5-5/6-6-5-----10-----|--------------------------------------------|
|-2-4-5------------------------|--------------------------------------------|
|------------------------------|--------------------------------------------|
|------------------------------|--------------------------------------------|
|------------------------------|--------------------------------------------|

        C                     C/B              Am
                                  [simplified........................
|----10-12-12--12/13-12--10-8-10-|----10-12-13-13-12-10--------------
|-13-----------------------------|-13-------------------13-12-13-10--
|--------------------------------|-----------------------------------
|--------------------------------|-----------------------------------
|--------------------------------|-----------------------------------
|--------------------------------|-----------------------------------
     G
...................]
-------------------|
-------------------|
-------------------|
-5-4-5-4-4-2---2-0-|
-------------------|
-------------------|
  C                    C/B            Am            G
|---------------3-5-----------|-----------------------------|
|---6p3-5---5h6-----3---6p3-5-|-5-6-5-6p5-3-----------------|
|-5---------------------------|-------------5---5-5-5p4-2-0-|
|-----------------------------|-----------------------------|
|-----------------------------|-----------------------------|
|-----------------------------|-----------------------------|


End:
C
|-------------------------------|----------|
|-3----3-6-5----5p3---3---3-6-5-|-1--1-----|
|---5---------------5---5-------|-0--0-----|
|-------------------------------|-2--2-----|
|-------------------------------|-3--3-----|
|-------------------------------|----------|


18/09/2011
0 Poster un commentaire

A découvrir aussi


Inscrivez-vous au blog

Soyez prévenu par email des prochaines mises à jour

Rejoignez les 12 autres membres