Amimegusta

Amimegusta

Tab "Galaxia"

Galaxia

Capo 2

Intro:
Em6(add9)
|{2-{2-{2-{2----{2-{2-{2-{2----|
|}2-}2-}2-}2----}2-}2-}2-}2----|
|{0-{0-{0-{0----{0-{0-{0-{0----|
|}2-}2-}2-}2----}2-}2-}2-}2----|
|{2-{2-{2-{2----{2-{2-{2-{2----|
|.0-.0-.0-.0----.0-.0-.0-.0--3-|


PartI
                                    D               C
|---7-7-7-5-3-3-2-0-0-0-----------0-2-2-|-5-5-5-3-2p0--2h3h5-3-2p0--------.0-|
|-----------------------3-1-0-1-3-------|--------------------------3-3-1--{1-|
|-7-------------------------------------|---------------------------------}0-|
|---------------------------------------|---------------------------------{2-|
|---------------------------------------|---------------------------------}3-|
|---------------------------------------|---------------------------------{3-|
          Am         B7              Em
|-3-3-3-2p0--3-2-2p0-----|-----------------------{2-|
|-1-1-1-1----1-1-1---4---|---------1p0---0-------}0-|
|------------------------|-----0h2-----2---2p0---{0-|
|------------------------|-2h4-----------------2-}2-|
|------------------------|-----------------------{2-|
|------------------------|-----------------------.0-|

                                  D                             C
|-------------------------------------|--------------------------------------
|-0-0-0-------------------------------|--------------------------------------
|-------2-2-0-0-0---------------------|-2-2-2-2p0----------------------------
|-----------------4-2-2-2-0---0-2-4-4-|-----------4p2p0---0-2-4-5-5-4-4-2-2p0
|---------------------------2---------|-----------------3--------------------
|-------------------------------------|--------------------------------------
                                   B7
---------|---------------------------|
---------|---------------------------|
---------|---------------------------|
---0-----|-5-5-5-4-2-4-5-4-4-4-2-1---|
-3---2-3-|-------------------------2-|
---------|---------------------------|


Part II
Em                              D                   C              B7
|----------------------------|---------------------|-------------------------|
|----------------------------|---------------------|-------------------------|
|----------------------------|---------------------|-------------------------|
|-2-2-2-5-5-5-5-4-4-4-2-0----|-0-5-4-4-4-2-2-0-----|-2-2-2-2-0---0-----------|
|-------------------------3--|-----------------3-2-|-----------3---3-2-------|
|----------------------------|---------------------|-------------------------|


Part III
Em              D         C         B7            Em
|---3-3-3----------0-0-0-|-2-3-2-3---2-3-5-|-2-3-5-3-2p0---0h2-0-------|
|-0-------3-0----0-------|-----------------|-------------3-------3p1-0-|
|------------------------|-----------------|---------------------------|
|------------------------|-----------------|---------------------------|
|------------------------|-----------------|---------------------------|
|------------------------|-----------------|---------------------------|
D                     C
|----------------------3-2-2-5-3-2-3-2-0-------|
|--------------------0-------------------3-1-0-|
|2-0-----------2-0-2---------------------------|
|----4-2-0-2-4---------------------------------|
|----------------------------------------------|
|----------------------------------------------|
B7                                  Em             D
|---------0-------------------------|-----------------------------|
|-0---------3-1-0-------------------|-5---5-7-5-----3---3-5-3-----|
|---2-0-2---------2-0---------------|---7-------7-----5-------5---|
|---------------------4-2-0---------|-----------------------------|
|---------------------------3-2-0---|-----------------------------|
|---------------------------------3-|-----------------------------|
C                B7       Em             D               C                 B7
|-------------------------|-----------------------------|--------------------|
|-1---1-3-1-------1---0---|-5---5-7-5-----3---3-5-3-----|-1---1-3-1---1h3p1p0|
|---4-------4---2---2-----|---7-------7-----5-------5---|---4-------4--------|
|-------------------------|-----------------------------|--------------------|
|-------------------------|-----------------------------|--------------------|
|-------------------------|-----------------------------|--------------------|
                 Em          D               C                 B7
|-0-2-3-5--2-3-5-3-2-0-|-2-3-5-3-2-0-2-0---|-3p2-2p0--3p2-2p0--5p3-3p2p0--
|----------------------|-----------------3-|------------------------------
|----------------------|-------------------|------------------------------
|----------------------|-------------------|------------------------------
|----------------------|-------------------|------------------------------
|----------------------|-------------------|------------------------------
           Em             D
5p3-3p2p0-|-7p5-5-----7-5-7-8-7-10-12-10-8-----------------------|
----------|-------8p7----------------------12-10-----------------|
----------|--------------------------------------12-10-9---------|
----------|----------------------------------------------12-10-9-|
----------|------------------------------------------------------|
----------|------------------------------------------------------|
C
|-----------------------------|
|-1-0-------------------------|
|-----2-0-2-0-----------------|
|-------------4p2---2---2-2p1-|
|-----------------3---3-------|
|-----------------------------|


Repeat part II


Part III
Em          D              C           B7
|-2p0-2-3-2--2p0-2-3-2-2p0-|-2p0-2-3-2--2p0-2-3-2-|
|--------------------------|----------------------|
|--------------------------|----------------------|
|--------------------------|----------------------|
|--------------------------|----------------------|
|--------------------------|----------------------|
Em               D              C(maj7sus4) B7  Em
|-2p0-2-3-2-2p0--{2p0-2-3-2-2p0-|{2p0-2-3-2--{2--{7-{7-{7-.7-{7-|
|----------------{3-------------|}0----------}0--}8-}8-}8-{8-}8-|
|----------------}2-------------|}0----------{2--{9-{9-{9-}9-{9-|
|----------------.0-------------|{2----------}1--}9-}9-}9-{9-}9-|
|-------------------------------|.3----------.2--.7-.7-.7-}7-.7-|
|-------------------------------|-------------------------------|

 





18/09/2011
0 Poster un commentaire

A découvrir aussi


Inscrivez-vous au blog

Soyez prévenu par email des prochaines mises à jour

Rejoignez les 12 autres membres