Amimegusta

Amimegusta

Tab "Gipsyrock"

Gipsyrock


Intro:
 N.C.                                  A
|---------------------------|--------0-{5-{5-.5-.5-{5-|
|-------5--------5--------5-|------0---}5-}5-{5-{5-}5-|
|-----6--------6--------6---|----1-----{6-{6-}6-}6-{6-|
|---6--------6--------6-----|----------}7-}7-{7-{7-}7-|
|-7--------5--------4-------|-2--------{7-{7-}7-}7-{7-|
|---------------------------|----------.5-.5-{5-{5-.5-|

Part I
        A          C#m  Cm Bm                    A
|-4-5p4-0---2/5-4-4--------{2---2p0----2p0----2-{0-|
|-------------------5----4-}3---3---3--3---3--3-}2-|
|------------------------5-{4---4---4--4---4--4-{2-|
|------------------------5-}4-------4------4----}2-|
|----------------------4-3-.2-------------------.0-|
|--------------------------------------------------|

                                C#m Cm Bm
                    /-3-
|---54----54----5-7-7-7-5-4-7--------{2-|
|-5------5-----5----------------5----4-}3-|
|------------------------------------5-{4-|
|------------------------------------5-}4-|
|----------------------------------4-3-.2-|
|-----------------------------------------|

Part II
        C#m                  E7-9   A          Bb7     Bm              A
                                       [2x...............................]
|---------4-4----4-4----4-4----2-2-----|-------1-1-----------------------|
|---------5-5----5-5----5-5----3-3-----|-------3-3-----------------------|
|---------6-6----6-6----6-6----1-1--.2-|-------1-1-----------------------|
|-4---------------------------------{2-|---------------------0-2-0-------|
|---7p5-7------5------4------2------}0-|---0h1------0h1h2--4-------4-2-0-|
|--------------------------------------|-4-------------------------------|

Part III
        C#m          Cm Bm       C#m Cm Bm
|-----------------------{2--------------{2-|
|--------------------{4-}3-----------{4-}3-|
|-1-2-2/4-2-1-2-1----}5-{4--4-4p2p1--}5-{4-|
|--------------------{5-}4-----------{5-}4-|
|------------------4-.3-.2-----------.3-.2-|
|------------------------------------------|

        F#m                       G#7
|-------{5-{5-{5-{5--{5-{5-{5-{5--{4-{4-{4-.4-.4-.4-.4-{4-.4-{4-|
|-------}7-}7-}7-}7--}7-}7-}7-}7--}4-}4-}4-{4-{4-{4-{4-}4-{4-}4-|
|-------{6-{6-{6-{6--{6-{6-{6-{6--{5-{5-{5-}5-}5-}5-}5-{5-}5-{5-|
|-----4-.7-.7-.7-.7--.7-.7-.7-.7--}4-}4-}4-{4-{4-{4-{4-}4-{4-}4-|
|---4-----------------------------{6-{6-{6-}6-}6-}6-}6-{6-}6-{6-|
|-5-------------------------------.4-.4-.4-{4-{4-{4-{4-.4-{4-.4-|

2x:
A / / /
C#m / / /

5x:
D / / /
C#m / / /

A / / /

Intro
Part I
Part II
Part III

2x:
A  / / /
C#m / / /

6x:
D / / /
C#m / / /


A / / /
C#m / / /
D / / /
C#m / / /
D / / /

End:
A; Bb; Bm; C#m;(3x)
A; Bb; Bm;

  C#m   B     C#m
|-{4-{4-{2-.2-{4-|
|-}5-}5-}4-{4-}5-|
|-{6-{6-{4-}4-{6-|
|-}6-}6-}4-{4-}6-|
|-.4-.4-.2-}2-.4-|
|----------------|
 

 


18/09/2011
0 Poster un commentaire

A découvrir aussi


Inscrivez-vous au blog

Soyez prévenu par email des prochaines mises à jour

Rejoignez les 12 autres membres