Amimegusta

Amimegusta

Tab "La Dona"

La Dona


(capo 1)
1:
                   D
Por l'amor d'una mujer
                   F#m7                      Em
si sabe les Comprender djo no quiero nostre amor pensa 
                   A7
Por l'amor d'una mujer que no diega les comprender
                D
El es fonte des mi vida
2:
Em               F#m7
Todo mi parace co-mo un sueno des la vida
       G        A7              D  
Por te Cambiera des nostre amor sincero
3:
Em                 F#m7
Todo mi parece Que tu no li cari si aba
      G                               D
Te prometto, te prometto que no volvera

Solo :
D                                 F#m7                       Em
----5---5-5--5-5-3-2--2-2-0--------------------------------------0---
--3---3---------------------3-2-0-2-s-3-2-0-0-2-(2)----0-2-3-2-3---3-
---------------------------------------------------------------------
---------------------------------------------------------------------
---------------------------------------------------------------------
---------------------------------------------------------------------
                             A7
0-2-0-2-3-2-3-5-5-5-5-3-3-3--7-7-7--7-7-7-7--7-7-7-5-5-5-3-3-3-2-2-2-
---------------------------------------------------------------------
---------------------------------------------------------------------
---------------------------------------------------------------------
---------------------------------------------------------------------
---------------------------------------------------------------------
                                                                    D
0-0-0----------------------------------------------------------------
------3-3-3-2-2-2-0-0-0----------------------------------------------
------------------------2-2-2-0-0-0----------------------------------
------------------------------------4-4-4-2-2-2-0-0-0---0-----------0
------------------------------------------------------4---4-2-0-2-4--
---------------------------------------------------------------------

(herh. 3)
4:(2x)
D                            F#m7
Lai  lo lai lo lai lo lai lo lai
                        Em
lo lai lo lai lo lai lo lai
                        A7  (D)
lo lai lo lai lo lai lo lai
---------------------------------------------------------------------
CHORDS:
:    xx0232
F#m7: 242222
Em:   xx5453
A7:   x02020 / 573685

 



18/09/2011
0 Poster un commentaire

A découvrir aussi


Inscrivez-vous au blog

Soyez prévenu par email des prochaines mises à jour

Rejoignez les 12 autres membres