Amimegusta

Amimegusta

Tab "la rumba de nicolas"

 

LA RUMBA DE NICOLAS


(Capo 2)

Intro:

|-14--14--14--14--14--14--14--14--10--10--10--10----------
|-14--14--14--14--14--14--14--14--10--10--10--10----------
|---------------------------------------------------------
|---------------------------------------------------------
|---------------------------------------------------------
|---------------------------------------------------------

-9---9---9---9---9---9---9---9--10--10--10--10------------|
-9---9---9---9---9---9---9---9--10--10--10--10------------|
----------------------------------------------------------|
----------------------------------------------------------|
----------------------------------------------------------|
----------------------------------------------------------|

1:
Bm
Cuando nosotros cantemos
              Em
En este mundo muy bueno
                A                        F#m
Queremos que la gente se levanta para bailar.
                   Bm
Cuando nosotros cantemos
              Em
En este mundo muy bueno
                A                        F#m  F#7
Queremos que la gente se levanta para bailar, para bailar...

Refrein:
     Bm              F#m
Bamboleo Djobi, Bamboleo Djoba
F#7                         Bm
Asi se canta la rumba de Nicolas
          Bm               
Bamboleo Djobi, Bamboleo Djoba
F#7                         Bm
Asi se canta la rumba de Nicolas
       Em     F#7       Bm
De Nicolas si si de Nicolas (3x)

Herh.:1
Herh.:refrein
Solo: Bm/Em/F#7/Bm/Em/F#7/
Herh.:refrein
---------------------------------------------------------------------

CHORDS:

Bm:  x24432
Em:  022000
A:   x02220
F#m: 244222
F#7: 242322



18/09/2011
0 Poster un commentaire

A découvrir aussi


Inscrivez-vous au blog

Soyez prévenu par email des prochaines mises à jour

Rejoignez les 12 autres membres