Amimegusta

Amimegusta

Tab "lagrimas"

 
 
Lagrimas


Capo 2

Intro:
  Em     Bm   Am       B7   Em     Bm   Am       B7
|-------------------------|-------------------------|
|-------------------------|-------------------------|
|-{0-----{4---{2-------{2-|-{0-----{4---{2-------{2-|
|-}5-4-5-}4---}4-2-4-2-}4-|-}5-4-5-}4---}4-2-4-2-}4-|
|-{2-----.2---{3-------.2-|-{2-----.2---{3-------.2-|
|-.0----------.5----------|-.0----------.5----------|

Riff 1
                                             B7+5
 Am       D7       Bsus2      Em      Am        B7 Em
|---------3-2-------0-------5-3-|-2-3----------3-2-0-|
|-3-1-0-1-1---------0-3---3---0-|-0-0-3-1p0h1--4-4-0-|
|-2-------2-----4-5-4---5-----0-|-----2-2------2-2-0-|
|-2-----------------------------|-----2-2------------|
|-------------------2-----------|--------------2-----|
|-----------------------------0-|------------------0-|

Riff 2 (2x):
 Em                      Am        D7                       B7sus4 B7
|-0-2-0---0-3--3h7-32-------------{2-|-2h5-2p0---2-3-2-0-2----------|
|-0-0-0-4-0-1------------1-3-1-0-1-}1-|-----------1-1-1-1-1---5--5-4-|
|-0-0-0-0-0-2------------2-2-2-----{2-|-----------2-2-2-2-2---2--2-2-|
|-----------0------------2-2-2-----.0-|-----------0-----------4--4-4-|
|-------------------------------------|-----------------------2----2-|
|---0---------------------------------|------------------------------|

Riff 3 (2x):
Em                      Am                   C#m              B
|7----7-----------------------------------3-|4---4------------2---2---------|
|--10----8-7-8------------1-3-1-0-1-0-1-0---|--7----5p4h5-------5---4p2h4---|
|---------------9-7-9-----------------------|-------------------------------|
|-------------------------------------------|-------------------------------|
|-----------------------0-------------------|4------4-----4---2-----2-----2-|
|0-------0------0---------------------------|-------------------------------|

Riff 4 (2x):
 Em          C         D            Bm
|-2h3p2h3p0--2-3-3-3-|-3-5-3-5-0--0---0-----|
|--------------------|--------------3---3-3-|
|--------------------|----------------------|
|--------------------|-0--------------------|
|-0----------3-------|--------------2-------|
|--------------------|----------------------|

Riff 1 (1x)
Riff 2 (2x)
Riff 3 (2x)
Riff 4 (2x)

End:
                                                          B7sus4
   Em          Bm   Am       B7        Em     Bm   Am        B7 Em
|--------------------------------5-2-|--------------------------{0-|
|--------------------------------7-4-|----------------------5-4-}0-|
|--{0---{0-----{4---{2-------{2--7-2-|-{0-----{4---{2-------2-2-{0-|
|--}5---}5-4-5-}4---}4-2-4-2-}4------|-}5-4-5-}4---}4-4-5-4-4-4-}2-|
|--{2---{2-----.2---{3-------.2------|-{2-----.2---{3-------2---{2-|
|-.-0---.0----------.5---------------|-.0----------.5-----------.0-|
 
 


18/09/2011
0 Poster un commentaire

A découvrir aussi


Inscrivez-vous au blog

Soyez prévenu par email des prochaines mises à jour

Rejoignez les 12 autres membres