Amimegusta

Amimegusta

Tab "Love and Liberté"

 

LOVE & LIBERTÈ


Intro
  (Am)
20/16
  Gtr I
|-----------0-0-7-0-(0)-(0)------:-----------0-0-7-0-(0)-(0)----|
|-------0-4----------------------:-------0-4--------------------|
|-----5--------------------------:-----5------------------------|
|---7----------------------------:---7--------------------------|
|-0------------------------------:-0----------------------------|
|--------------------------------:------------------------------|


  Q=110
                                 C5  B5
5/4                            4/4
|------------------------------:---------------|
|-4-5-5-7-7-8-(8)-8-7-5-4-(4)--:---------------|
|------------------------------:---------------|
|------------------------------:-5S=4--(4)----|
|------------------------------:-3S=2--(2)----|
|------------------------------:---------------|


Main Theme
  Flamenco Q=151
                     Cmaj7
                   Gtr III
                      | | | | | | | |    |  | | | | | |   |
                      / / / / x / / /    /  / / / / / /   /

|------------------|-^0---0-----------|-(0)---------5----------|
|------------------|-^1-3-------------|---------------3h5p3p2--|
|-----------4-5-7--|-^0---------------|------------------------|
|-(4)-4-5-7--------|-^2---------------|------------------------|
|-(2)--------------|-^0---------------|------------------------|
|------------------|------------------|------------------------|
|
| Gtr II
|------------------|----3-----3-------|-----3-----3------------|
|------------------|--------5-----5---|---------5-----5--------|
|------------------|------4-----4---4-|-------4-----4-----4----|
|------------------|--5---------------|--5---------------------|
|------------------|------------------|------------------------|
|------------------|------------------|------------------------|


  Bm7                                   Am7
  | | | | | | | |    |  | | | | | | |   | | | | | | | |
  / / / / x / / /    /  / / / x / / /   / / / / x / / /

|-----------------|-------------3-----|-----------------|
|-3---------------|---------------1-0h|=1---------------|
|-----------0-----|-------------------|-----------------|
|---------------4-|-(4)---------------|-----------------|
|-----------------|-------------------|-----------------|
|-----------------|-------------------|-----------------|
|
|---2-----2-------|-----2-----2-------|---0-----0-------|
|-------3-----3---|---------3-----3---|-------1-----1---|
|-----2-----2---2-|-------2-----2---2-|-----0-----0---0-|
|-4---------------|--4----------------|-2---------------|
|-----------------|-------------------|-----------------|
|-----------------|-------------------|-----------------|


                    Cmaj7
  | | | | | | | |    | | | | | | | |    |  | | | | | |   |
  / / / / x / / /    / / / / x / / /    /  / / / x / /   /

|-----------------|-^0---0-----------|-(0)---------5----------|
|---------0-1-3---|-^1-3-------------|---------------3h5p3p2--|
|-----0-2---------|-^0---------------|------------------------|
|-2-4-------------|-^2---------------|------------------------|
|-----------------|-^3---------------|------------------------|
|-----------------|------------------|------------------------|
|
|---0-----0-------|----3-----3-------|-----3-----3------------|
|-------1-----1---|--------5-----5---|---------5-----5--------|
|-----0-----0---0-|------4-----4---4-|-------4-----4-----4----|
|-2---------------|--5---------------|--5---------------------|
|-----------------|------------------|------------------------|
|-----------------|------------------|------------------------|


  Bm7                                   Am7
  | | | | | | | |    |  | | | | | | |   | | | | | | | |
  / / / / x / / /    /  / / / x / / /   / / / / x / / /

|-----------------|-------------3-----|-----------------|
|-3---------------|-(3)-----------1-0h|=1---------------|
|-----------------|-------------------|-----------------|
|-----------------|-------------------|-----------------|
|-----------------|-------------------|-----------------|
|-----------------|-------------------|-----------------|
|
|---2-----2-------|-----2-----2-------|---0-----0-------|
|-------3-----3---|---------3-----3---|-------1-----1---|
|-----2-----2---2-|-------2-----2---2-|-----0-----0---0-|
|-4---------------|--4----------------|-2---------------|
|-----------------|-------------------|-----------------|
|-----------------|-------------------|-----------------|


                      Em
   |  | | | | | | |    |  | | | | | | |   | | | | | | | |
   /  / / / x / / /    /  / / / x / / /   / / / / x / / /

|-------------------|-------------------|-----------------|
|-(1)---------------|-------------------|-----------------|
|-------------2-4-4-|-(4)---------------|-----------------|
|-------------------|-------------------|-----------------|
|-------------------|-------------------|-----------------|
|-------------------|-------------------|-----------------|
|
|-----0-----0-------|-----0-----0-------|---0-----0-------|
|---------1-----1---|---------0-----0---|-------0-----0---|
|-------0-----0---0-|-------0-----0---0-|-----0-----0---0-|
|--2----------------|-------------------|-----------------|
|-------------------|-------------------|-----------------|
|-------------------|--0----------------|-0---------------|


Guitar Solo
                                      Cmaj7/A
  |     |       |     | | |   |   |   | |||||||
  /     /       /     / x /   /   /   / ///x///

|-----------------0-2-3-2-3-5---7---|-7--------|
|---------0-1-3---------------------|----------|
|---0-2-----------------------------|----------|
|-----------------------------------|----------|
|-----------------------------------|----------|
|-----------------------------------|----------|
|
|-------0---------------0-----------|----------|
|---------------------0-------0-----|----------|
|---------------0---------0-------0-|----------|
|-----------------------------------|----------|
|-----------------------------------|----------|
|-0---------------------------------|----------|


                  Am
  ||||   | | | |   | |||||||   |  |||||||
  ////   x / / /   / ///x///   /  ///x///

|----5-3-2-3-5--|-^5--------|-(5)--------|
|---------------|-^4--------|-(4)--------|
|---------------|-^2--------|-(2)--------|
|---------------|-^4--------|-(4)--------|
|---------------|-^2--------|-(2)--------|
|---------------|-----------|------------|


                                Theme
  B7/F#        B7/F#(type 2)     Em
   | || |||||   |  |||||||       | | | | | | ||
   / // /x///   /  ///x///       / / / / x / //

|-^3--2------|-(2)-------------|-3-2-0---2-3--5--|
|-^4---------|---------------0-|-------0---------|
|-^2---------|-------------0---|-----------------|
|-^4---------|-----------2-----|-----------------|
|-^2---------|-----------------|-----------------|
|------------|-----------------|-----------------|


  A7            D7/A               G7
   |  |||||||    |  | | | | | ||    |  ||||| ||
   /  ///x///    /  / / / x / //    /  ///x/ //

|-(5)-------2-|-(2)-0-----0-2--3-|-(3)-----2--0-|
|-------------|-------3----------|--------------|
|-------------|---------2--------|--------------|
|-----------0-|-(0)--------------|--------------|
|-------------|------------------|------------3-|
|-------------|------------------|--------------|


  C/G                F7             B7/F#(type 2)
   |  | | | | | ||    |  ||||| ||    |  ||||| | |
   /  / / / x / //    /  ///x/ //    /  ///x/ / /

|-(0)---------0--1-|-(1)-----0----|-------------0-|
|-----3-1---3------|------------4-|-(4)-----2-4---|
|---------0--------|--------------|---------------|
|------------------|--------------|---------------|
|-(3)--------------|---------3--2-|-(2)-----------|
|------------------|--------------|---------------|


  G7              Em               A7
   |  ||||| | |   | | | | | | ||    |  ||||| ||
   /  ///x/ / /   / / / / x / //    /  ///x/ //

|-(0)---------0-|-3-2-0---2-3--5-|-(5)-----3--2-|
|---------------|-------0--------|--------------|
|-----------0---|----------------|--------------|
|---------4-----|-2--------------|------------0-|
|---------------|----------------|--------------|
|---------------|----------------|--------------|


  D7/A               G7             C/G
   |  | | | | | ||    |  ||||| ||    |  | | | | | ||
   /  / / / x / //    /  ///x/ //    /  / / / x / //

|-(2)-0-----0-2--3-|-(3)-----2--0-|-(0)---------0--1-|
|-------3----------|--------------|-----3-1---3------|
|---------2--------|--------------|---------0--------|
|-(0)--------------|---------0----|------------------|
|------------------|------------3-|------------------|
|------------------|--------------|------------------|


  F7             B7/F#(type 2)   Em
   |  ||||| ||    |  ||||| | |    |  ||||| | |
   /  ///x/ //    /  ///x/ / /    /  ///x/ / /

|-(1)-----0----|-------------0-|-(0)---------0-|
|------------4-|-(4)-----2-4---|---------------|
|--------------|---------------|-----------0---|
|--------------|---------------|---------4-----|
|---------3--2-|-(2)-----------|---------------|
|--------------|---------------|---------------|


Guitar Solo 2
                         D7/A
  | |   | |   | | ||     | ||| ||||     |   |  |   |     |  |     |  |
  / /   / /   x / //     / /// x///     /   /  /   /     x  /     /  /

|-5-3h5p3-2h3p2-0--0-2-|-0----------0-|-2-3--2h5p3h5p3p2--0-0-0--------0---|
|----------------------|-----3----3---|-------------------------3--1-3---3-|
|----------------------|--------------|------------------------------------|
|----------------------|--------------|------------------------------------|
|----------------------|--------------|------------------------------------|
|----------------------|--------------|------------------------------------|


  C/G                         B7/F#(type 2)
  | |||||||  || | | | | | |    |  |||||||
  / ///x///  // / / x / / /    /  ///x///

|----------|----------------|------------|
|-1--------|----------------|------------|
|----------|----------------|------------|
|----------|--1-0-----------|------------|
|----------|------3-2-1-3-2-|-(2)--------|
|----------|----------------|------------|


                      Am7V
  ||      | ||| | |    |  | |||||  |      |  |||||||
  //      / /x/ / /    /  / //x//  /      /  ///x///

|--8-10-8-7-----7---|-----------------|-----------------|
|-------------8---8-|-10-10------(10)-|-(10)------------|
|-------------------|-----------------|-----------------|
|-------------------|-----------------|---------------4-|
|-------------------|-----------------|-------------2---|
|-------------------|-----------------|-----------------|


  B7/F#                B7/F#(type 2)           Em
  |     |  ||||||      ||||   |   | |  |       | ||| ||| |
  /     /  //x///      ////   x   / /  /       / /// x// /

|-----3--2-------(2)-|--------2-3-5--8-8-8-8-|-8---7----(7)-|
|---4----------------|----4-5----------------|--------------|
|-2------------------|-----------------------|--------------|
|--------------------|-----------------------|--------------|
|--------------------|-----------------------|--------------|
|--------------------|-----------------------|--------------|


                 D7/E              Gm
  || | | || ||   |   |   |  |||||  || | | || ||
  // / / x/ //   /   /   /  /x///  // / / x/ //

|--------------|-----------------|---------------|
|--------------|-----------------|---------------|
|------0-------|-----------------|------3--2--2--|
|---------4--4-|-4p2p=0-(0)------|----0----------|
|----2---------|-----------------|---------------|
|--0-----------|-----------------|--3------------|


  F                 Em             D7/Aopen
  |   |   |  |||||  || | | || ||   |   |   |  |||   ||
  /   /   /  /x///  // / / x/ //   /   /   /  /x/   //

|-----------------|--------------|---------------------|
|-----------------|--------------|---------------------|
|-2-0-------------|------0-------|---------------------|
|------3-(3)------|---------4--4-|-4-2--0-(0)---0-2--2-|
|-----------------|----2---------|---------------------|
|-----------------|--0-----------|---------------------|


  C/G                    B7/F#             B7/F#(type 2)
  |   |  ||||     |  |   |   |   |  |||||  || | | | | | |
  /   /  //x/     /  /   /   /   /  /x///  // / / x / / /

|----------------------|-----------------|---------------|
|----------------------|-----------------|--------0-1-3--|
|----------------------|-----------------|----0-2--------|
|-2-0--------------1-1-|-1---------------|--4------------|
|------3----3-2-3------|---3--2-(2)------|---------------|
|----------------------|-----------------|---------------|


Main Theme Revisited
  Cmaj7                             Bm7
   | | | |||||   |  ||||| |   |     | ||||| ||
   / / / /x///   /  ///x/ /   /     / ///x/ //

|-^0---0------|-(0)-----5---------|-------------|
|-^1-3--------|-----------3h5p3p2-|-3-----------|
|-^0----------|-------------------|-------0-----|
|-^2----------|-------------------|----------4--|
|-^3----------|-------------------|-------------|
|-------------|-------------------|-------------|


                  Am7
   |  ||||| | |   | |||||||  | | | | | | | |
   /  ///x/ / /   / ///x///  / / / / x / / /

|---------3-----|----------|----------------|
|-----------1p0-|-1--------|---------0-1-3--|
|---------------|----------|-----0-2--------|
|-(4)-----------|----------|-2-4------------|
|---------------|----------|----------------|
|---------------|----------|----------------|


  Cmaj7                             Bm7
   | | | |||||   |  ||||| |   |     | |||||||
   / / / /x///   /  ///x/ /   /     / ///x///

|-^0---0------|-(0)-----5---------|-----------|
|-^1-3--------|-----------3h5p3p2-|-3---------|
|-^0----------|-------------------|-----------|
|-^2----------|-------------------|-----------|
|-^3----------|-------------------|-----------|
|-------------|-------------------|-----------|


  Bm7             Am7
   |  ||||| | |   | |||||||  ||||||||
   /  ///x/ / /   / ///x///  ////x///

|---------3-----|----------|---------|
|-(3)-------1p0-|-1--------|---------|
|---------------|----------|---------|
|---------------|----------|---------|
|---------------|----------|---------|
|---------------|----------|---------|


Piano Solo
  Em                 G6/D               Em/C#
   | | | | | | | |    |  | | | | | | |   | | | | | | | |
   / / / / x / / /    /  / / / x / / /   / / / / x / / /

  Gtr II
|------3-------3---|-------3-------3--|------3-------3---|
|----0-------0-----|-----0-------0----|----0-------0-----|
|------------------|------------------|------------------|
|--2-------2-----0-|-(0)-------0------|------------------|
|------------------|------------------|--4-------4-----3-|
|------------------|------------------|------------------|
|
| Gtr IV
|-12------15-------|-19-------24------|-27------24-------|
|------------------|------------------|------------------|
|------------------|------------------|------------------|
|------------------|------------------|------------------|
|------------------|------------------|------------------|
|------------------|------------------|------------------|


  C                  Em                 G6/D
   |  | | | | | | |   | | | | | | | |    |  | | | | | | |
   /  / / / x / / /   / / / / x / / /    /  / / / x / / /

|-------3-------3--|------3-------3---|-------3-------3--|
|-----0-------0----|----0-------0-----|-----0-------0----|
|------------------|------------------|------------------|
|------------------|--2-------2-----0-|-(0)-------0------|
|-(3)-------3------|------------------|------------------|
|------------------|------------------|------------------|
|
|-19-------15------|-12------15-------|-19-------24------|
|------------------|------------------|------------------|
|------------------|------------------|------------------|
|------------------|------------------|------------------|
|------------------|------------------|------------------|
|------------------|------------------|------------------|


  Em/C#              C                  C6/E
   | | | | | | | |    |  | | | | | | |  | | | | | | | |
   / / / / x / / /    /  / / / x / / /  / / / / x / / /

|------3-------3---|-------3-------3--|---------0-------|
|----0-------0-----|-----0-------0----|-----1-0---0-1---|
|------------------|------------------|---2-----------2-|
|------------------|------------------|-----------------|
|--4-------4-----3-|-(3)-------3------|-0---------------|
|------------------|------------------|-----------------|
|
|-27------24-------|-19-------15------|-----------------|
|------------------|------------------|-----------------|
|------------------|------------------|-----------------|
|------------------|------------------|-----------------|
|------------------|------------------|-----------------|
|------------------|------------------|-----------------|


                    B7/F#(type 2)
  | | | | | | | |   | | | | | | | |   | | | | | | | |
  / / / / x / / /   / / / / x / / /   / / / / x / / /

|---------0-------|---------0-------|---------0-------|
|-----1-0---0-1---|-----1-0---0-1---|-----1-0---0-1---|
|---2-----------2-|---2-----------2-|---2-----------2-|
|-----------------|-----------------|-----------------|
|-0---------------|-2---------------|-2---------------|
|-----------------|-----------------|-----------------|


  Em
  | | | |  |  |||   |  |||||||  | | | |  |  |||
  / / / /  x  ///   /  ///x///  / / / /  x  ///

  Gtr I
|----------------|------------|-----------------|
|----------------|------------|-----------------|
|-------0-(0)----|-(0)--------|-------0-(0)---0-|
|-----4----------|-(4)--------|-----4-----------|
|---2------------|-(2)--------|---2-------------|
|-0--------------|-(0)--------|-0---------------|


Guitar Solo 3
                   D7/Aopen
  | | | | || | |   | ||| | | | |    |  |     |  |  |  |    |    |
  / / / / x/ / /   / /// / / / /    /  /     /  /  x  /    /    /

|----------------|---------------|---------------------------------------|
|-----0----------|---------------|---------------------------------------|
|---0------------|-------0-2-4-2-|-(2)-0-0-------------------------------|
|-4-----2--4-2-1-|-0---4---------|---------4--2--2--0----0h=2p0----------|
|----------------|---------------|---------------------3---------3-(3)---|
|----------------|---------------|---------------------------------------|


  C/G                                   B7/F#(type 2)
  |   |  |   |  | |||  || | | | | | |   |   |   |  |||||
  /   /  /   /  x ///  // / / x / / /   /   /   /  /x///

|--------------------|----------------|------------------|
|---------------1----|----------------|------------------|
|------0------0------|--2-0-----------|------------------|
|---2------2---------|------4-2---1-1-|-1----------------|
|-3------3-----------|----------3-----|---3p=2-(2)-------|
|--------------------|----------------|------------------|


  ||      |  |     |  |     |     |
  //      /  /     x  /     /     /

|--8h10p8--8--7--------7-------------|
|---------------10--9----10--(10)----|
|------------------------------------|
|------------------------------------|
|----------------------------------2-|
|------------------------------------|


  B7/F#
  |   |   ||||||      |||| |     |  |    |
  /   /   //x///      //// x     /  /    /

|-------5-------(5)-|----7--------------------|
|-----4-------------|-------10-7--9--(9)--(9)-|
|---2---------------|-------------------------|
|-4-----------------|-------------------------|
|-------------------|-------------------------|
|-------------------|-------------------------|


  E/B                                                            Em/B
  |       |  |  |    |  |    |  |         |  ||||    |   ||       |  |||||||
  /       /  /  /    x  /    /  /         /  ///x    /   //       /  ///x///

|--------------------------------------|--------7--------------|--------------|
|-------9--------9-------9-------9-(9)-|-(9)------10-7-8---(8)-|-(8)----------|
|-----9-------9-------9-------9--------|-----------------------|--------------|
|---9------9-------9-------9-----------|-----------------------|--------------|
|-7------------------------------------|-----------------------|--------------|
|--------------------------------------|-----------------------|--------------|


  Em7/B                           D7/A
  |   |   |   |  |    |  ||       |   |  |    ||||     |
  /   /   /   /  x    /  //       /   /  /    /x//     /

|-------------------------------|---------------------------|
|---------7-8--7-8-10--8--7-8-7-|---8--7--(7)-----(7)-(7)-9-|
|-----7-9-----------------------|-9-------------------------|
|--10---------------------------|---------------------------|
|-------------------------------|---------------------------|
|-------------------------------|---------------------------|


  |   |  |   |   |   |    |    |
  /   /  /   /   x   /    /    /

|----------------------------------|
|-7----7-7-8--10-8-7---------------|
|---------------------9-9--9-9--7--|
|---9------------------------------|
|----------------------------------|
|----------------------------------|


  C/G                                        B7/F#
   | |     | |   |  |||  ||   | | | |  | |   |    |   |  |||||   |  |||||||
   / /     / /   x  ///  //   / / x /  / /   /    /   /  /x///   /  ///x///

|----------------------|-------------------|------------------|-------------|
|----------------------|--7-7-7------------|------------------|-------------|
|----7-9-7-------------|--------9-8-9----8-|-8----------------|-------------|
|-10--------10-(10)----|--------------10---|---10--9-(9)------|-(9)---------|
|----------------------|-------------------|------------------|-------------|
|----------------------|-------------------|------------------|-------------|


  |   |   |   |   |   |   |   |     | |||||||
  /   /   /   /   x   /   /   /     / ///x///

|-----5-------5-------5-------5---|----------|
|---5---5---5---5---5---5---5---5-|----------|
|-5-------5-------5-------5-------|-5--------|
|---------------------------------|----------|
|---------------------------------|----------|
|---------------------------------|----------|


  B7/F#(type 2)
  |   |   |   |   |   |   |   |     | |||||||
  /   /   /   /   x   /   /   /     / ///x///

|-----2-------2-------2-------2---|----------|
|---4---4---4---4---4---4---4---4-|----------|
|-4-------4-------4-------4-------|-4--------|
|---------------------------------|----------|
|---------------------------------|----------|
|---------------------------------|----------|


  E/B
  |   |   |   |   |   |   |   |     | |||||||
  /   /   /   /   x   /   /   /     / ///x///

|-----4-------4-------4-------4---|----------|
|---5---5---5---5---5---5---5---5-|----------|
|-4-------4-------4-------4-------|-4--------|
|---------------------------------|----------|
|---------------------------------|----------|
|---------------------------------|----------|


  Em/B
  |   |   |   |   |   |   |   |     | |||||||
  /   /   /   /   x   /   /   /     / ///x///

|-----3-------3-------3-------3---|----------|
|---3---3---3---3---3---3---3---3-|----------|
|-4-------4-------4-------4-------|-4--------|
|---------------------------------|----------|
|---------------------------------|----------|
|---------------------------------|----------|


  C
  |   |   |   |   |   |   |   |     | |||||||
  /   /   /   /   x   /   /   /     / ///x///

|-----3-------3-------3-------3---|----------|
|---5---5---5---5---5---5---5---5-|----------|
|-5-------5-------5-------5-------|-5--------|
|---------------------------------|----------|
|---------------------------------|----------|
|---------------------------------|----------|


  C6/E
  |   |   |   |   |   |   |   |     | |||||||
  /   /   /   /   x   /   /   /     / ///x///

|-----3-------3-------3-------3---|----------|
|---5---5---5---5---5---5---5---5-|----------|
|-0-------0-------0-------0-------|-0--------|
|---------------------------------|----------|
|---------------------------------|----------|
|---------------------------------|----------|


                        Main Theme revisited
  B7/F#(type 2)                            Cmaj7
  |   |   |   |   | |||   | | | | | | | |   | | | | | |||
  /   /   /   /   x ///   / / / / x / / /   / / / / x ///

|-----2-------2--------|-^2--------------|-^0---0--------|
|---5---5---5---5------|-^4--------------|-^1-3----------|
|-4-------4-------4----|-^4-------4-5-7--|-^0------------|
|----------------------|----4-5-7--------|-^2------------|
|----------------------|-----------------|-^3------------|
|----------------------|-----------------|---------------|
|
| Gtr IV
|----------------------|-----------------|---------12----|
|----------------------|-----------------|---------------|
|----------------------|-----------------|---------------|
|----------------------|-----------------|---------------|
|----------------------|-----------------|---------------|
|----------------------|-----------------|---------------|


                        Bm7
   |  ||| | | |   |       |  ||| | |||   |  ||| | | | |
   /  /// x / /   /       /  /// x ///   /  /// x / / /

|-(0)-------5---------|---------------|-----------3------|
|-------------3h5p3p2-|---3-----------|-(3)---------1-0--|
|---------------------|---------------|------------------|
|---------------------|---------------|------------------|
|---------------------|---------------|------------------|
|---------------------|---------------|------------------|
|
|-19-----24-----------|-(24)----10----|-17-----22--------|
|---------------------|---------------|------------------|
|---------------------|---------------|------------------|
|---------------------|---------------|------------------|
|---------------------|---------------|------------------|
|---------------------|---------------|------------------|


  C6/E                           Cmaj7
   | ||| | |||  | | | | | | | |   |  | | | | |||
   / /// x ///  / / / / x / / /   /  / / / x ///

|-------------|----------------|-^0----0--------|
|--1----------|----------------|-^1--3----------|
|-------------|---------4-5-7--|-^0-------------|
|-------------|---4-5-7--------|-^2-------------|
|-------------|----------------|-^3-------------|
|-------------|----------------|----------------|
|
|-20----15----|-8--------------|-(8)------12----|
|-------------|----------------|----------------|
|-------------|----------------|----------------|
|-------------|----------------|----------------|
|-------------|----------------|----------------|
|-------------|----------------|----------------|


                        Bm7
   |  ||| | | |   |       |  ||| | |||   |  ||| | | | |
   /  /// x / /   /       /  /// x ///   /  /// x / / /

|-(0)-------5---------|---------------|-----------3------|
|-------------3h5p3p2-|---3-----------|-(3)---------1-0--|
|---------------------|---------------|------------------|
|---------------------|---------------|------------------|
|---------------------|---------------|------------------|
|---------------------|---------------|------------------|
|
|-19-----24-----------|-(24)----10----|-17-----22--------|
|---------------------|---------------|------------------|
|---------------------|---------------|------------------|
|---------------------|---------------|------------------|
|---------------------|---------------|------------------|
|---------------------|---------------|------------------|


  C6/E                           Cmaj7
   | ||| | |||  | | | | | | | |   |  | | | | |||
   / /// x ///  / / / / x / / /   /  / / / x ///

|-------------|----------------|-^0----0--------|
|--1----------|----------------|-^1--3----------|
|-------------|---------4-5-7--|-^0-------------|
|-------------|---4-5-7--------|-^2-------------|
|-------------|----------------|-^3-------------|
|-------------|----------------|----------------|
|
|-20----15----|-8--------------|-(8)------12----|
|-------------|----------------|----------------|
|-------------|----------------|----------------|
|-------------|----------------|----------------|
|-------------|----------------|----------------|
|-------------|----------------|----------------|


                        Bm7
   |  ||| | | |   |       |  ||| | |||   |  ||| | | | |
   /  /// x / /   /       /  /// x ///   /  /// x / / /

|-(0)-------5---------|---------------|-----------3------|
|-------------3h5p3p2-|---3-----------|-(3)---------1-0--|
|---------------------|---------------|------------------|
|---------------------|---------------|------------------|
|---------------------|---------------|------------------|
|---------------------|---------------|------------------|
|
|-19-----24-----------|-(24)----10----|-17-----22--------|
|---------------------|---------------|------------------|
|---------------------|---------------|------------------|
|---------------------|---------------|------------------|
|---------------------|---------------|------------------|
|---------------------|---------------|------------------|


  C6/E                           Cmaj7
   | ||| | |||  | | | | | | | |   |  | | | | |||
   / /// x ///  / / / / x / / /   /  / / / x ///

|-------------|----------------|-^0----0--------|
|--1----------|----------------|-^1--3----------|
|-------------|---------4-5-7--|-^0-------------|
|-------------|---4-5-7--------|-^2-------------|
|-------------|----------------|-^3-------------|
|-------------|----------------|----------------|
|
|-20----15----|-8--------------|-(8)------12----|
|-------------|----------------|----------------|
|-------------|----------------|----------------|
|-------------|----------------|----------------|
|-------------|----------------|----------------|
|-------------|----------------|----------------|


                        Bm7
   |  ||| | | |   |       |  ||| | |||   |  ||| | | | |
   /  /// x / /   /       /  /// x ///   /  /// x / / /

|-(0)-------5---------|---------------|-----------3------|
|-------------3h5p3p2-|---3-----------|-(3)---------1-0--|
|---------------------|---------------|------------------|
|---------------------|---------------|------------------|
|---------------------|---------------|------------------|
|---------------------|---------------|------------------|
|
|-19-----24-----------|-(24)----10----|-17-----22--------|
|---------------------|---------------|------------------|
|---------------------|---------------|------------------|
|---------------------|---------------|------------------|
|---------------------|---------------|------------------|
|---------------------|---------------|------------------|


  C6/E
   | ||| | |||  | |||||   ||
   / /// x ///  / ///x/   //

|-------------|---------------|
|--1----------|---------0---0-|
|-------------|-------2-------|
|-------------|---------------|
|-------------|---------------|
|-------------|---------------|
|
|-20----15----|-8-------------|
|-------------|---------------|
|-------------|---------------|
|-------------|---------------|
|-------------|---------------|
|-------------|---------------|


Outro
  Emadd9
   | |  |  | |    |   |   |   |   |   |   |   |   |   |   |
   / /  /  / /    /   /   /   /   /   /   /   /   /   /   /

|-------------------------------------------------------------|
|--0----------------------------------------------------------|
|-----2--0--(0)-----------------------------------------------|
|-------------------------------------------------------------|
|-------------------------------------------------------------|
|-------------------------------------------------------------|
|
| Gtr II
|-------------------------------------------------------------|
|-^0---------0--------0-----------0---------0-------0---------|
|-^0------------0-------0-------0---------0-----------0-------|
|-^4--------------4---------4-------4---------4-----------4---|
|-^2----------------2-----2-----------2---------2-------2-----|
|-^0---------0----------------0---------0---------0---------0-|


  |   |   |   |   |   |   |   |   |   |   |   |   |   |   |   |
  /   /   /   /   /   /   /   /   /   /   /   /   /   /   /   /

  Gtr II
|------------------------------------------------------------------|
|---------0-----0-------------0---------------0-------------0------|
|-------0---------0---------------0---------0-----0-------0--------|
|-----4-------------4-------4---4---------4-----4-------4----------|
|---2---------2-------2---2---------2---2-----------2---------2----|
|-0---------0-----------0-------------0---------------0---------0--|


  |   |   |   |   | | | | |  |  ||||| |
  /   /   /   /   / / / / /  /  ///// /

|----------------------------------------|
|---------0---------------0-(0)------(0)-|
|-------0---0-----------0----------------|
|-----4-------4-------4------------------|
|---2-----------2---2--------------------|
|-0---------------0----------------------|


  Emadd9
   |           |
   /           /

|-----------|------------|-----*|
|-^0--------|-(0)--------|-----*|
|-^0--------|-(0)--------|-----*|
|-^4--------|-(4)--------|-----*|
|-^2--------|-(2)--------|-----*|
|-^0--------|-(0)--------|-----*|


</font></pre><hr noshade>
<p align = center><pre>
Tablature Legend
----------------
h   - hammer-on
p   - pull-off
b   - bend
pb  - pre-bend
r   - bend release (if no number after the r, then release immediately)
/  - slide into or out of (from/to "nowhere")
s   - legato slide
S   - shift slide
&lt;n&gt; - natural harmonic
\n  - artificial harmonic
n(n) - tapped harmonic
~   - vibrato
tr  - trill
T   - tap
TP  - trem. picking
PM  - palm muting
/  - tremolo bar dip; n = amount to dip
  - tremolo bar down
n/  - tremolo bar up
/n  - tremolo bar inverted dip
=   - hold bend; also acts as connecting device for hammers/pulls
&lt;&gt; - volume swell (louder/softer)
x   - on rhythm slash represents muted slash
o   - on rhythm slash represents single note slash

Misc Legend
-----------
|  - bar
||  - double bar
||o - repeat start
o|| - repeat end
*|  - double bar (ending)
:  - bar (freetime)
$  - Segno
&  - Coda



18/09/2011
0 Poster un commentaire

A découvrir aussi


Inscrivez-vous au blog

Soyez prévenu par email des prochaines mises à jour

Rejoignez les 12 autres membres