Amimegusta

Amimegusta

Tab "montana"

 
 
MONTANA


(Capo 2)

Intro:

             G6                                        C
|------------(0)------------------------------------------
|-----3------(0)-------1--h--3--p--1--p--0-------------1--
|0-----------(0)----------------------------------0----0--
|0-----------(0)---------------------------------------2--
|------------(2)---------------------------------------3--
|3-----------(3)------------------------------------------

          Em                  D7                    G6   
------------------------------2---------------------0----|
0---------0-------------------1---------------------0----|
----------0--------0----------2-------0-------------0----|
----------2-------------------0---------------------0----|
----------2-----------------------------------------2----|
----------0-----------------------------------------3----|

(Repeat intro once)

G6         C           Em      D7    G6   
Yo voy caminando, a la montana donde naci.
(repeat)

           Em                  Bm
No puedo vivir, alla noche del camino ir.
       C           D7             G6    
En del cielo, yo mirada una estrella.

           Em               Bm
No puedo vivir, al lado del camino ir.
       C          D7            G6    
Que no vivo, Paso tiempo (del camino).

(Chorus, verse, etc.)

Em      Bm
Ti dadoudi  dadoudi
    C  
lon lei lon lei lon lei lon
    D7                              G6   
lon lei lon lei lon lei lon lei lon lei


Last 2 verses:

G6    / C / Bm / C
---------------------------------------------------------------------
CHORDS:
G6   : 320000 / 320030
C:     332010
Em:    022000
D7:    xx0212
Bm:    x24432


18/09/2011
2 Poster un commentaire

A découvrir aussi


Inscrivez-vous au blog

Soyez prévenu par email des prochaines mises à jour

Rejoignez les 12 autres membres