Amimegusta

Amimegusta

Tab "Moorea"

Moorea



Intro:

Am                              E7
|--8-10--8---10-|--8------10--8-|----7-8-7---8-|-7-----8-7-|
|-10-10-10---10-|-10---10-10-10-|----9-9-9---9-|-9-----9-9-|
|--9--9--9----9-|--9----9--9--9-|----7-7-7---7-|-7-----7-7-|
|---------------|---------------|--------------|-----------|
|---------------|---------------|-7----------7-|-----7-----|
|---------------|---------------|--------------|-----------|

Gm                        D7
|---6-8-6---8-|-6-----8-6-|---5-6-5---6-|-5-----6-5-|
|---8-8-8---8-|-8-----8-8-|---7-7-7---7-|-7-----7-7-|
|-7---------7-|-----7-----|---5-5-5---5-|-5-----5-5-|
|-------------|-----------|-------------|-----------|
|-------------|-----------|-5---------5-|-----5-----|
|-------------|-----------|-------------|-----------|

Eb                        Cm
|---6-8-6---8-|-6-----8-6-|---8-10-8---10-|-8-----10-8-|
|---8-8-8---8-|-8-----8-8-|---8--8-8----8-|-8------8-8-|
|-------------|-----------|---8--8-8----8-|-8------8-8-|
|-------------|-----------|---------------|------------|
|-6---------6-|-----6-----|---------------|------------|
|-------------|-----------|-8-----------8-|-----8------|

F#dim                            D7
|----8-10--8---10-|--8-----10--8-|---10-11-10---11-|-10-----11-10-|
|---10-10-10---10-|-10-----10-10-|---10-10-10---10-|-10-----10-10-|
|----8--8--8----8-|--8------8--8-|---11-11-11---11-|-11-----11-11-|
|-----------------|--------------|-0-------------0-|------0-------|
|-9-------------9-|------9-------|-----------------|--------------|
|-----------------|--------------|-----------------|--------------|


Verse 1:

Am / / /
E/G# / / /
Gm / / /
D/F# / / /
Eb / / /
Cm7 / / /
F#dim / / /
D7 / / /
Am / / /
E/G# / / /
Gm / / /
D/F# / / /
Eb / / /
Cm7 / / /
F#dim / / /
D7sus4; D7 / / /


Repeat intro


Verse 2:

Am / / /
E7sus4; E7
Gm / / /
D7/F# / / /
Eb / / /
Cm7 / / /
F#dim / / /
D7 / / /
Am / / /
E/G# / / /
Gm / / /
D/F# / / /
Eb / / /
Cm / / /
F#dim / / /
D7 / / /


Repeat intro


Verse 3:

Am / / /
E/G# / / /
Gm / / /
D/F# / / /
Eb / / /
Cm7 / / /
F#dim / / /
D7 / / /
Am / / /
E/G# / / /
Gm / / /
D/F# / / /
Ebmaj7 / / /
Cm7 / / /
F#dim / / /
D7 / / /


Repeat intro
Repeat verse 3
Repeat intro



18/09/2011
0 Poster un commentaire

A découvrir aussi


Inscrivez-vous au blog

Soyez prévenu par email des prochaines mises à jour

Rejoignez les 12 autres membres