Amimegusta

Amimegusta

Tab "no vivire"

 

NO VIVIRE


(Capo 6)
Intro 1(2x):
                       Em
|--------------------------------------------------------------------|
|-0--1---3----5---3---1--0--------0--1---3---5---3---1--0------------|
|-0--2---4----5---4---2--0--------0--2---4---5---4---2--0------------|
|--------------------------------------------------------------------|
|--------------------------------------------------------------------|
|--------------------------------------------------------------------|
                                                                 F
|--------------------------------------------------------------------|
|-0--1---3---5---3---------------5----3----5--1--0--3--s--1--s--0----|
|-0--2---4---5---4---------------5----4----5--2--0--2-----2-----0--2-|
|------------------------------------------------------------------3-|
|--------------------------------------------------------------------|
|--------------------------------------------------------------------|
Intro 2:
                      Em
|-------------------------------------------------------------------|
|-3---1---3---3---1----0-------------------3---1----3---3--1---0----|
|-4---2---4---4---2----0-------------------4---2----4---4--2---0----|
|-------------------------------------------------------------------|
|-------------------------------------------------------------------|
|-------------------------------------------------------------------|

Em                         F
No vivire, si me falta su amor
Am                           Em
Cunto a ti, ser feliz y nada mas
                             F                                     Em
Refrein a(2x):   Sono no mingue-ue-ue-ue , sono lo que tenga de signe
                              (Em)
Refrein b(2x):   Lo que quiero yo de ti,(2x)          
                                     
                 Lo que quiero yo de ti, de ti, de ti,
                               F                       
                 Me falta tu amor.                    
                                      Em
Refrein c:       No quiero perder su amor,
Em                           F
No vivire que el amor no se acaba. 
Am                           Em
Cunto a ti, ser feliz y nada mas
Refrein, intro 1,2
Em                       F
Yo sere feliz, no quiero perder te
         Em
Nunca lo vivir sin ti,
                              F
No diga mas, el lo mismo me encuentra
Am                       Em
Ser feliz, vivare y nada mas
Refrein a(4x)
---------------------------------------------------------------------
CHORDS:
:  133211  
Em: 022000
Am: x02210



18/09/2011
0 Poster un commentaire

A découvrir aussi


Inscrivez-vous au blog

Soyez prévenu par email des prochaines mises à jour

Rejoignez les 12 autres membres