Amimegusta

Amimegusta

Tab "ritmo de la noche"

 

Ritmo De La Noche



Intro(2x):
C#m     B      A     G#m C#m     B      A     G#m  F#m    G#m    F#m     G#
|------------------------|------------------------|-----------------------------|
|-5----5-4----4-2----2---|-5----5-4----4-2----2---|-----------------------------|
|--6------4------2-----4-|--6------4------2-----4-|--2----2-4----4-2----2-4h5---|
|---6------4------2------|---6------4------2------|---4------6------4--------76|
|-4------2------0--------|-4------2------0--------|----4------6------4----------|
|----------------------4-|----------------------4-|--2------4------2------4-----|


Verse

G# 
C#m
G# 
C#m
E  
A  
F#m
G# 



Bridge
B              C#m       B              C#m
|------2-------2-2-------|------2-------2-2-------|
|-5-4-5--5-4-5-----5-4-5-|-5-4-5--5-4-5-----5-4-5-|
|------------------------|------------------------|
|------------------------|------------------------|
|------------------------|------------------------|
|------------------------|------------------------|
B              C#m       B              G#
|------2-------2-2-------|-------2-------2-5-4-2-5-|
|-5-4-5--5-4-5-----5-4-5-|-5-4-5---5-4-5-----------|
|------------------------|-------------------------|
|------------------------|-------------------------|
|------------------------|-------------------------|
|------------------------|-------------------------|

Repeat verse
Repeat bridge

End(6x):
C#m      B       A      G#m F#m     G#m          G#
|-------2-------------------|-----------------------|  
|-5-4-5---4-2-4-5-2---2-4-0-|-----------------------|
|-------------------4-------|-2-----6-4---2-----6-5-|
|---------------------------|---6-4---------6-4-----|
|---------------------------|-----------------------|
|---------------------------|---------------------



18/09/2011
0 Poster un commentaire

A découvrir aussi


Inscrivez-vous au blog

Soyez prévenu par email des prochaines mises à jour

Rejoignez les 12 autres membres