Amimegusta

Amimegusta

Tab "Ruptura"

RUPTURA


(Capo 4)
Intro :

C G F(F7)

|-0-----1-----x-----0------1-----x-----0-|
|-1-----1-----3-----1------1-----3-----1-|
|-0-----2-----0-----0------2-----0-----0-|
|-2-----3-----0-----2------3-----0-----2-|
|-3-----x-----x-----3------x-----x-----3-|
|-x-----x-----x-----x------x-----x-----x-|

C               G(G7) (Fill 1) F(F7)                  
Además de mi persona              
                    C
que tú no tienes acabar.
                     G(G7) (Fill 1) F(F7)                     
Que bendices tu hermosura                
                     C
aunque se pagara el amor.
     G(G7)      F(F7)      C             
El dinero, el dinero, el dinero.

(Refrein:)(Fill 2)
C                   G(G7)  F(F7)
Ay lo lai lo lai lo lai lo
                    C
Ay lo lai lo lai lo lai
   G(G7)   F(F7)C
Ay lo la - ah - ah

C                  G(G7) (Fill 1) F(F7)                   
Yo tendré que erosinarme              
                    C
el se quite tu hermosura.
C                G(G7) (Fill 1) F(F7)                  
Ay yo sé vivo llorando.             
                   C
no me pidas que te quiera.
        G(G7)         F(F7)         C
Tu hermosura, tu hermosura, tu hermosura.

Refrein
------------------------------------------------------------------
Fill 1:                           Fill 2:
F (F7)
|---------------------x----1-|    |-------------------|
|---------------------x----1-|    |-------------------|
|---------------------x----2-|    |-------------------|
|---------------------x----3-|    |-------------------|
|---------------------x----3-|    |-------------------|
|-4----3----2----1----x----1-|    |-11 (s )----------|

CHORDS:
C:  x32010                   
F:  133211                   
F7: 131211
G:  320003                   
G7: 320001



18/09/2011
0 Poster un commentaire

A découvrir aussi


Inscrivez-vous au blog

Soyez prévenu par email des prochaines mises à jour

Rejoignez les 12 autres membres