Amimegusta

Amimegusta

Tab "tierra gitana"

 

TIERRA GITANA

(Capo 2)
1(2x):
        B7
|-2----2----(2)----(2)----(2)----(2)----(2)--|
|-0----0-----1------0------1------0------1---|
|-2----2----(2)----(2)----(2)----(2)----(2)--|
|-1----1----(1)----(1)----(1)----(1)----(1)--|
|-2----2----(2)----(2)----(2)----(2)----(2)--|
|-x----x-----x------x------x------x------x---|

2(2x):
Em
|------------------------------------------------------------------
|------------------------------------------------------------------
|---0------0-------------------------------------------------------
|--4------4-----2--h--4--p--2--h--4--p--2-----2--p--0--h--2--p--0--
|-2------------2-----------------------------2---------------------
|0------------0-----------------------------0----------------------
D
------------------------------------------------------------------
------------------------------------------------------------------
------------------------------------------------------------------
--4-p-0-h-4-p-0----------2-p-0-h-2-p-0-------0--------------------
-5----------------------5-------------------5------5-p-3-h-5-p-3--
5----------------------5-------------------5----------------------
C/G
--------------------------------------------------------
--------------------------------------------------------
--------------------------------------------------------
--------2--p--0--h--2--p--0-----------0--h--2-----------
----3-------------------------------3----------------3--
3---------------------------------3---------------------
                                  B7
------------------------------------------------------------------|
---------------------------------0-h-1-p--0----0------------------|
-------------------------------2---------------2------------------|
---------0------------------1-------------------------------------|
3--2--3----3--2--3---2--------------------------------------------|
------------------------------------------------------------------|
                               (let ring --------------->)

3:
D7(add9)                      D7
|-2--2--0--0-----2--2--0--0---3--3--2--2-----3--3--2--2---
|-3--3-----3-----3--3-----3------1--1--1--------1--1--1---
|----3-----3--------3-----3------2--2--2--------2--2--2---
|----x-----2--------x-----2---0--0--0--0-----0--0--0--0---
|-3--3-----3-----3--3-----3-------------------------------
|----x-----x--------x-----x-------------------------------
C/G                                     B7
2--2--0--0------------------------------------------------|
3--3-----3----------------------------------0-h-1-p--0---0|
---3-----3--------------------------------2------------2--|
---x-----2----------------0-------------1-----------------|
3--3-----3-------3--2--3-----3--2--3--2-------------------|
---x-----x------------------------------------------------|
4:              5:            ||
Ritme gitaar:   Bridge(2x):   ||                 CHORDS:
Em / / /        B7 / / /      ||                 B7:  x21202
D / / /         B7 / / /      ||                 Em:  022000
G / / /         D  / / /      ||                 D:   554x3x / xx0230
C / / /         D  / / /      ||                 C/G: 332010
D C B7 /                      ||                 G:   355433



19/09/2011
0 Poster un commentaire

A découvrir aussi


Inscrivez-vous au blog

Soyez prévenu par email des prochaines mises à jour

Rejoignez les 12 autres membres