Amimegusta

Amimegusta

Tab "trista pena"

TRISTA PENA


(Capo 4)

Intro: (Fill 1 )

Em                                   D
|--------------------------------|----0-----------------------------|
|--------0-h-1-p-0-----0---------|--0-------------------------------|
|-0--2----------------2----------|------2-h-4-p-2-------------------|
|--------------------------------|----------------------------------|
|--------------------------------|----------------------------------|
|--------------------------------|----------------------------------|

         C                            Bm                         Em                                  
|--------------------------------|----------------------------------|
|--------------------------------|----------------------------------|
|--------0-----------------------|-0--2-----------------------------|
|-2--4---------------------------|----------4-h-5-s-2--4----0--0--2-|
|--------------------------------|----------------------------------|
|--------------------------------|----------------------------------|

1:
Em                               Bm           C
Yo se que un dia volvera, trista pena, ya dejalo ya
Em                               Bm                C
Yo se que un dia volvera, trista pena, yo lo voy a buscar
2:
Em                    Bm    Am         Em
Y yo no me acuerdo de ella, amor amor amargo
Am           Bm      Am B7        Em
Amor bien agitanado, amo-r con mi querer

3(Chorus):
Am         Em           D                 B7
Hoy para vivir, amor confundir, y no sabe llorar
Am           Em              D        
Hoy manana vivir, no sabes co-nfundir
4:
              C               Em
Un amor de verdad, pero ya lo siento ya

(Fill 1 2x)
5:
              Bm   Am            Em
La que mas queria, amor mas agitanado
Am               Bm    Am B7           Em                       
Amor ya mas agitanado, amo-r ya sin tu querer

(3,4)
(Fill 1)
(3)
6(einde):
           Em         D                      C                 E,
Hoy para vivir, amor co-nfundi, y no sabe llorar, pero un amor verdad
---------------------------------------------------------------------
CHORDS:
m: 022000 
D:  xx0232 / x54232
C:  332010
Bm: x24432
Am: x02210
B7: x21202

 



18/09/2011
0 Poster un commentaire

A découvrir aussi


Inscrivez-vous au blog

Soyez prévenu par email des prochaines mises à jour

Rejoignez les 12 autres membres