Amimegusta

Amimegusta

Tab "habla me"

 

HABLA ME


(Capo 4)

Intro(Riff 1):
                     Bm                                          F#m
---------2-------------------------------------------2--------------
3--2--3-----3--2--3-------------------------3--2--3-----3--2--3--2--
---------------------4----------------------------------------------
--------------------------------------------------------------------
--------------------------------------------------------------------
--------------------------------------------------------------------
                     G                                            D
----------------------------------------------0---------------------
---------5--3--2--3---------------------------3---------------------
0--2--4--------------4------------------------4---------------------
----------------------------------------------5-------------------4-
----------------------------------------------0---------------------
--------------------------------------------------------------------

D                        G      D                   G
Habla me, Como te camelo yo, Quiere me, Como te amo yo
           Em                 A                       F#m
Es un amor tan clave, De que amor que yo tenía lo guardaba
        Bm                      Em               G     D
De que amor que yo tenía lo guardaba, Es como un final y volver ayer.
D                         G      D                   G
Quiere me, Como te camino yo, Quiere me, Como te amo yo
           Em               A                       F#m
Es un amor posible, De que amor que yo tenía lo guardaba
        Bm                      Em               G     D
De que amor que yo tenía lo guardaba, Es como un final y volver ayer.
(Riff1)
            G
Y ya volver a ver (Y ya volver a ver)
             Em
Que no ya comprenden (Que no ya comprenden)
        A                       F#m
De que amor que yo tenía lo guardaba
        Bm                      F#m
De que amor que yo tenía lo guardaba,
           G     D
Es como un final y a volver ayer.
             G
Yo se que volverás (Yo se que volverás)
               Em
Y no sentir el amor (Y no sentir el amor)
        A                       F#m
De que amor que yo tenía lo guardaba,
        Bm                      Em
De que amor que yo tenía lo guardaba,
           G     D
Es como un final y a volver ayer.

---------------------------------------------------------------------
CHORDS:
m:  x24432
F#m: 244222
G:   320003 / 355433
D:   x00232 / x54232
Em:  022000
A:   x02220



18/09/2011
0 Poster un commentaire

A découvrir aussi


Inscrivez-vous au blog

Soyez prévenu par email des prochaines mises à jour

Rejoignez les 12 autres membres