Amimegusta

Amimegusta

Tab "Pena Penita"

PENA PENITA


Capo's: (Gitaar 1(solo):) 5
        (Gitaar 2:) 3
       
Intro: (4x, Gitaar 1)

F#m (Em)
|(0)---------------------------------------------------------|
|(0)---------------------------------------------------------|
|(0)-------------------------------------s-2-2-s-------------|
|(2)-----2-2-2-2-2-s-4-4-4-4-s-5-------------5-s-4-4-s-2-----|
|(2)---------------------------------------------------------|
|(0)--0------------------------------------------------------|

E7 (D7)
|------------------------------------------------------------|
|------------------------------------------------------------|
|------------------------------------------------------------|
|-----0-----0--0--0-h-2--2--2-s-4-4-s-5-5-s-4-4-2-2-2-s-0----|
|------------------------------------------------------------|
|------------------------------------------------------------|

1:
F#m                      E7
Yo vi, yo vi llorar a un gitano, un gitano!
                F#m
Lo vi llorar de tristeza.
             E7
Por mi no me da ese hombre, que a ese hombre
                F#m
Lo vi llorar de tristeza.
N.C.              E7                     F#m
Va tirando por la calle, como un pobre vagabundo.
                   E7
Que pena me da ese hombre, que a ese hombre!
                F#m
Lo vi llorar de tristeza.

2:
N.C.   E7
Pena penita,
       F#m
Pena penita,
       E7
Pena penita,
                   F#m
Que (ya) lo siento yo.

3:(2x)                               E7
Pena penita que (ya) lo siento yo
                               F#m
Pena penita que (ya) lo siento yo
---------------------------------------------------------------------
CHORDS and CAPO'S:

Guitar 1 (Solo): 
         F#m: 022000 (Em)
         E7:  xx0212 (D7)

Guitar 2: 
         F#m: 244222
         E7:  020130

 



18/09/2011
0 Poster un commentaire

A découvrir aussi


Inscrivez-vous au blog

Soyez prévenu par email des prochaines mises à jour

Rejoignez les 12 autres membres