Amimegusta

Amimegusta

Tab "a ti a ti"

 

A TI A TI


Intro (Capo 5):

|------0-----------0-------------|-------0-----------0--------------|
|3-----------3-----------1-----0-|-3-----------3-----------1------0-|
|------------------------------0-|--------------------------------0-|
|------------------------------0-|--------------------------------0-|
|3----(3)----2----(2)----0-----2-|-3----(3)----2----(2)----0--------|
|------------------------------3-|--------------------------------3-|

(4x:)
|------0-----------0-----------0----|
|3-----------3-----------1----------|
|-----------------------------------|
|-----------------------------------|
|3----(3)----2----(2)----0----------|
|------------------------------3----|

1(2x):
F                                               C7
En pasen por esta rambla, por la rambla de Barcelona                    
                                          F
encuentra una chiquita y la llevo ya a mi casa.


Refrein:
                    C7            Dm
Yo te quiero a ti a ti, bem, bem, bem.
                    C7            Dm
Yo te quiero a ti a ti, bem, bem, bem.
                    C7
Yo te quiero a ti a ti.
                 Am
Solamente a ti a ti.
                    D#maj7       C7
Sabe bien que yo te quiero mujer.
        F
Tu eres para mi.

2:
                                          C7

En pasen por este rampla encuentre una chiquita.
                                          F
Yo la mira a su cara y ya para mi a mi me gusta

3:
                                                C7
En pasen por este rampla, por la rampla de Barcelona
                                          F
encuentre una chiquita y la llevo ya a mi casa.

(refrein 2x)
---------------------------------------------------------------------
CHORDS:
:        332010
G7:       320001
Am:       x02210
Em:       022000
F#maj7:   xx3231



18/09/2011
0 Poster un commentaire

A découvrir aussi


Inscrivez-vous au blog

Soyez prévenu par email des prochaines mises à jour

Rejoignez les 12 autres membres